  0
SECTION
  2
HEADER
  9
$ACADVER
  1
AC1015
  9
$ACADMAINTVER
 70
    20
  9
$DWGCODEPAGE
  3
ANSI_1252
  9
$INSBASE
 10
0.0
 20
0.0
 30
0.0
  9
$EXTMIN
 10
836.7544044027498
 20
971.4682110276545
 30
0.0
  9
$EXTMAX
 10
839.0070907430938
 20
971.8582110276544
 30
0.0
  9
$LIMMIN
 10
0.0
 20
0.0
  9
$LIMMAX
 10
420.0
 20
297.0
  9
$ORTHOMODE
 70
     1
  9
$REGENMODE
 70
     1
  9
$FILLMODE
 70
     1
  9
$QTEXTMODE
 70
     0
  9
$MIRRTEXT
 70
     1
  9
$LTSCALE
 40
1.0
  9
$ATTMODE
 70
     1
  9
$TEXTSIZE
 40
2.5
  9
$TRACEWID
 40
1.0
  9
$TEXTSTYLE
  7
SANINDUSA
  9
$CLAYER
  8
0
  9
$CELTYPE
  6
ByLayer
  9
$CECOLOR
 62
   256
  9
$CELTSCALE
 40
1.0
  9
$DISPSILH
 70
     0
  9
$DIMSCALE
 40
1.0
  9
$DIMASZ
 40
2.0
  9
$DIMEXO
 40
1.0
  9
$DIMDLI
 40
1.0
  9
$DIMRND
 40
0.0
  9
$DIMDLE
 40
0.0
  9
$DIMEXE
 40
1.0
  9
$DIMTP
 40
0.0
  9
$DIMTM
 40
0.0
  9
$DIMTXT
 40
2.0
  9
$DIMCEN
 40
0.0
  9
$DIMTSZ
 40
0.0
  9
$DIMTOL
 70
     0
  9
$DIMLIM
 70
     0
  9
$DIMTIH
 70
     0
  9
$DIMTOH
 70
     0
  9
$DIMSE1
 70
     0
  9
$DIMSE2
 70
     0
  9
$DIMTAD
 70
     1
  9
$DIMZIN
 70
     8
  9
$DIMBLK
  1

  9
$DIMASO
 70
     1
  9
$DIMSHO
 70
     1
  9
$DIMPOST
  1

  9
$DIMAPOST
  1

  9
$DIMALT
 70
     0
  9
$DIMALTD
 70
     3
  9
$DIMALTF
 40
0.03937007874016
  9
$DIMLFAC
 40
1.0
  9
$DIMTOFL
 70
     1
  9
$DIMTVP
 40
0.0
  9
$DIMTIX
 70
     0
  9
$DIMSOXD
 70
     0
  9
$DIMSAH
 70
     0
  9
$DIMBLK1
  1

  9
$DIMBLK2
  1

  9
$DIMSTYLE
  2
SANINDUSA
  9
$DIMCLRD
 70
   256
  9
$DIMCLRE
 70
   256
  9
$DIMCLRT
 70
   256
  9
$DIMTFAC
 40
1.0
  9
$DIMGAP
 40
1.0
  9
$DIMJUST
 70
     0
  9
$DIMSD1
 70
     0
  9
$DIMSD2
 70
     0
  9
$DIMTOLJ
 70
     0
  9
$DIMTZIN
 70
     8
  9
$DIMALTZ
 70
     0
  9
$DIMALTTZ
 70
     0
  9
$DIMUPT
 70
     0
  9
$DIMDEC
 70
     1
  9
$DIMTDEC
 70
     1
  9
$DIMALTU
 70
     2
  9
$DIMALTTD
 70
     3
  9
$DIMTXSTY
  7
SANINDUSA
  9
$DIMAUNIT
 70
     0
  9
$DIMADEC
 70
     1
  9
$DIMALTRND
 40
0.0
  9
$DIMAZIN
 70
     0
  9
$DIMDSEP
 70
    44
  9
$DIMATFIT
 70
     3
  9
$DIMFRAC
 70
     0
  9
$DIMLDRBLK
  1

  9
$DIMLUNIT
 70
     2
  9
$DIMLWD
 70
    -1
  9
$DIMLWE
 70
    -1
  9
$DIMTMOVE
 70
     0
  9
$LUNITS
 70
     2
  9
$LUPREC
 70
     4
  9
$SKETCHINC
 40
1.0
  9
$FILLETRAD
 40
3.0
  9
$AUNITS
 70
     0
  9
$AUPREC
 70
     0
  9
$MENU
  1
.
  9
$ELEVATION
 40
0.0
  9
$PELEVATION
 40
0.0
  9
$THICKNESS
 40
0.0
  9
$LIMCHECK
 70
     0
  9
$CHAMFERA
 40
10.0
  9
$CHAMFERB
 40
10.0
  9
$CHAMFERC
 40
20.0
  9
$CHAMFERD
 40
0.0
  9
$SKPOLY
 70
     0
  9
$TDCREATE
 40
2453563.749071354
  9
$TDUCREATE
 40
2453563.707404688
  9
$TDUPDATE
 40
2453977.641215451
  9
$TDUUPDATE
 40
2453977.599548785
  9
$TDINDWG
 40
0.0029618634
  9
$TDUSRTIMER
 40
0.0029616898
  9
$USRTIMER
 70
     1
  9
$ANGBASE
 50
0.0
  9
$ANGDIR
 70
     0
  9
$PDMODE
 70
     0
  9
$PDSIZE
 40
0.0
  9
$PLINEWID
 40
0.0
  9
$SPLFRAME
 70
     0
  9
$SPLINETYPE
 70
     6
  9
$SPLINESEGS
 70
     8
  9
$HANDSEED
  5
1161
  9
$SURFTAB1
 70
     6
  9
$SURFTAB2
 70
     6
  9
$SURFTYPE
 70
     6
  9
$SURFU
 70
     6
  9
$SURFV
 70
     6
  9
$UCSBASE
  2

  9
$UCSNAME
  2

  9
$UCSORG
 10
0.0
 20
0.0
 30
0.0
  9
$UCSXDIR
 10
1.0
 20
0.0
 30
0.0
  9
$UCSYDIR
 10
0.0
 20
1.0
 30
0.0
  9
$UCSORTHOREF
  2

  9
$UCSORTHOVIEW
 70
     0
  9
$UCSORGTOP
 10
0.0
 20
0.0
 30
0.0
  9
$UCSORGBOTTOM
 10
0.0
 20
0.0
 30
0.0
  9
$UCSORGLEFT
 10
0.0
 20
0.0
 30
0.0
  9
$UCSORGRIGHT
 10
0.0
 20
0.0
 30
0.0
  9
$UCSORGFRONT
 10
0.0
 20
0.0
 30
0.0
  9
$UCSORGBACK
 10
0.0
 20
0.0
 30
0.0
  9
$PUCSBASE
  2

  9
$PUCSNAME
  2

  9
$PUCSORG
 10
0.0
 20
0.0
 30
0.0
  9
$PUCSXDIR
 10
1.0
 20
0.0
 30
0.0
  9
$PUCSYDIR
 10
0.0
 20
1.0
 30
0.0
  9
$PUCSORTHOREF
  2

  9
$PUCSORTHOVIEW
 70
     0
  9
$PUCSORGTOP
 10
0.0
 20
0.0
 30
0.0
  9
$PUCSORGBOTTOM
 10
0.0
 20
0.0
 30
0.0
  9
$PUCSORGLEFT
 10
0.0
 20
0.0
 30
0.0
  9
$PUCSORGRIGHT
 10
0.0
 20
0.0
 30
0.0
  9
$PUCSORGFRONT
 10
0.0
 20
0.0
 30
0.0
  9
$PUCSORGBACK
 10
0.0
 20
0.0
 30
0.0
  9
$USERI1
 70
     0
  9
$USERI2
 70
     0
  9
$USERI3
 70
     0
  9
$USERI4
 70
     0
  9
$USERI5
 70
     0
  9
$USERR1
 40
0.0
  9
$USERR2
 40
0.0
  9
$USERR3
 40
0.0
  9
$USERR4
 40
0.0
  9
$USERR5
 40
0.0
  9
$WORLDVIEW
 70
     1
  9
$SHADEDGE
 70
     3
  9
$SHADEDIF
 70
    70
  9
$TILEMODE
 70
     1
  9
$MAXACTVP
 70
    64
  9
$PINSBASE
 10
0.0
 20
0.0
 30
0.0
  9
$PLIMCHECK
 70
     0
  9
$PEXTMIN
 10
1.000000000000000E+20
 20
1.000000000000000E+20
 30
1.000000000000000E+20
  9
$PEXTMAX
 10
-1.000000000000000E+20
 20
-1.000000000000000E+20
 30
-1.000000000000000E+20
  9
$PLIMMIN
 10
0.0
 20
0.0
  9
$PLIMMAX
 10
420.0
 20
297.0
  9
$UNITMODE
 70
     0
  9
$VISRETAIN
 70
     1
  9
$PLINEGEN
 70
     0
  9
$PSLTSCALE
 70
     1
  9
$TREEDEPTH
 70
  3020
  9
$CMLSTYLE
  2
Standard
  9
$CMLJUST
 70
     0
  9
$CMLSCALE
 40
20.0
  9
$PROXYGRAPHICS
 70
     1
  9
$MEASUREMENT
 70
     1
  9
$CELWEIGHT
370
    -1
  9
$ENDCAPS
280
     0
  9
$JOINSTYLE
280
     0
  9
$LWDISPLAY
290
     0
  9
$INSUNITS
 70
     6
  9
$HYPERLINKBASE
  1

  9
$STYLESHEET
  1
monochrome.ctb
  9
$XEDIT
290
     1
  9
$CEPSNTYPE
380
     0
  9
$PSTYLEMODE
290
     1
  9
$FINGERPRINTGUID
  2
{AC5FD507-0744-4107-90A7-D982917C7F73}
  9
$VERSIONGUID
  2
{59C427CB-65CD-4840-8245-E691428A4B2B}
  9
$EXTNAMES
290
     1
  9
$PSVPSCALE
 40
0.0
  9
$OLESTARTUP
290
     0
  0
ENDSEC
  0
SECTION
  2
CLASSES
  0
CLASS
  1
ACDBDICTIONARYWDFLT
  2
AcDbDictionaryWithDefault
  3
ObjectDBX Classes
 90
        0
280
     0
281
     0
  0
CLASS
  1
ACDBPLACEHOLDER
  2
AcDbPlaceHolder
  3
ObjectDBX Classes
 90
        0
280
     0
281
     0
  0
CLASS
  1
LAYOUT
  2
AcDbLayout
  3
ObjectDBX Classes
 90
        0
280
     0
281
     0
  0
CLASS
  1
DICTIONARYVAR
  2
AcDbDictionaryVar
  3
ObjectDBX Classes
 90
        0
280
     0
281
     0
  0
CLASS
  1
DIMASSOC
  2
AcDbDimAssoc
  3
"AcDbDimAssoc|Product Desc:     AcDim ARX App For Dimension|Company:          Autodesk, Inc.|WEB Address:      www.autodesk.com"
 90
    32768
280
     0
281
     0
  0
CLASS
  1
TABLESTYLE
  2
AcDbTableStyle
  3
ObjectDBX Classes
 90
     2047
280
     0
281
     0
  0
CLASS
  1
SORTENTSTABLE
  2
AcDbSortentsTable
  3
ObjectDBX Classes
 90
    32768
280
     0
281
     0
  0
ENDSEC
  0
SECTION
  2
TABLES
  0
TABLE
  2
VPORT
  5
8
330
0
100
AcDbSymbolTable
 70
     2
  0
VPORT
  5
1159
330
8
100
AcDbSymbolTableRecord
100
AcDbViewportTableRecord
  2
*Active
 70
     0
 10
0.0
 20
0.0
 11
1.0
 21
1.0
 12
837.9516760959184
 22
971.655508783871
 13
0.0
 23
0.0
 14
10.0
 24
10.0
 15
10.0
 25
10.0
 16
0.0
 26
0.0
 36
1.0
 17
0.0
 27
0.0
 37
0.0
 40
1.693815576536508
 41
1.593939393939393
 42
50.0
 43
0.0
 44
0.0
 50
0.0
 51
0.0
 71
     0
 72
   100
 73
     1
 74
     2
 75
     0
 76
     0
 77
     0
 78
     0
281
     0
 65
     1
110
0.0
120
0.0
130
0.0
111
1.0
121
0.0
131
0.0
112
0.0
122
1.0
132
0.0
 79
     0
146
0.0
  0
ENDTAB
  0
TABLE
  2
LTYPE
  5
5
330
0
100
AcDbSymbolTable
 70
     3
  0
LTYPE
  5
14
330
5
100
AcDbSymbolTableRecord
100
AcDbLinetypeTableRecord
  2
ByBlock
 70
     0
  3

 72
    65
 73
     0
 40
0.0
  0
LTYPE
  5
15
330
5
100
AcDbSymbolTableRecord
100
AcDbLinetypeTableRecord
  2
ByLayer
 70
     0
  3

 72
    65
 73
     0
 40
0.0
  0
LTYPE
  5
16
330
5
100
AcDbSymbolTableRecord
100
AcDbLinetypeTableRecord
  2
Continuous
 70
     0
  3
Solid line
 72
    65
 73
     0
 40
0.0
  0
LTYPE
  5
2D
330
5
100
AcDbSymbolTableRecord
100
AcDbLinetypeTableRecord
  2
DASHDOT
 70
     0
  3
Dash dot __ . __ . __ . __ . __ . __ . __ . __
 72
    65
 73
     4
 40
25.4
 49
12.7
 74
     0
 49
-6.349999999999999
 74
     0
 49
0.0
 74
     0
 49
-6.349999999999999
 74
     0
  0
LTYPE
  5
2E
330
5
100
AcDbSymbolTableRecord
100
AcDbLinetypeTableRecord
  2
HIDDEN
 70
     0
  3
Hidden __ __ __ __ __ __ __ __ __ __ __ __ __ _
 72
    65
 73
     2
 40
9.524999999999998
 49
6.349999999999999
 74
     0
 49
-3.174999999999999
 74
     0
  0
ENDTAB
  0
TABLE
  2
LAYER
  5
2
330
0
100
AcDbSymbolTable
 70
    16
  0
LAYER
  5
10
330
2
100
AcDbSymbolTableRecord
100
AcDbLayerTableRecord
  2
0
 70
     0
 62
     7
  6
Continuous
370
    -3
390
F
  0
LAYER
  5
2F
330
2
100
AcDbSymbolTableRecord
100
AcDbLayerTableRecord
  2
1
 70
     0
 62
     1
  6
Continuous
370
    -3
390
F
  0
LAYER
  5
30
330
2
100
AcDbSymbolTableRecord
100
AcDbLayerTableRecord
  2
2
 70
     0
 62
     2
  6
Continuous
370
    -3
390
F
  0
LAYER
  5
31
330
2
100
AcDbSymbolTableRecord
100
AcDbLayerTableRecord
  2
3
 70
     0
 62
     3
  6
Continuous
370
    -3
390
F
  0
LAYER
  5
32
330
2
100
AcDbSymbolTableRecord
100
AcDbLayerTableRecord
  2
4
 70
     0
 62
     4
  6
Continuous
370
    -3
390
F
  0
LAYER
  5
33
330
2
100
AcDbSymbolTableRecord
100
AcDbLayerTableRecord
  2
5
 70
     0
 62
     5
  6
Continuous
370
    -3
390
F
  0
LAYER
  5
34
330
2
100
AcDbSymbolTableRecord
100
AcDbLayerTableRecord
  2
6
 70
     0
 62
     6
  6
Continuous
370
    -3
390
F
  0
LAYER
  5
35
330
2
100
AcDbSymbolTableRecord
100
AcDbLayerTableRecord
  2
7
 70
     0
 62
     7
  6
Continuous
370
    -3
390
F
  0
LAYER
  5
36
330
2
100
AcDbSymbolTableRecord
100
AcDbLayerTableRecord
  2
cen
 70
     0
 62
     7
  6
DASHDOT
370
    -3
390
F
  0
LAYER
  5
37
330
2
100
AcDbSymbolTableRecord
100
AcDbLayerTableRecord
  2
hid
 70
     0
 62
     7
  6
HIDDEN
370
    -3
390
F
  0
LAYER
  5
5D6
330
2
100
AcDbSymbolTableRecord
100
AcDbLayerTableRecord
  2
hatch
 70
     0
 62
     9
  6
Continuous
370
    -3
390
F
  0
LAYER
  5
8AF
330
2
100
AcDbSymbolTableRecord
100
AcDbLayerTableRecord
  2
9
 70
     0
 62
     9
  6
Continuous
370
    -3
390
F
  0
LAYER
  5
8F8
330
2
100
AcDbSymbolTableRecord
100
AcDbLayerTableRecord
  2
leg fin
 70
     0
 62
     9
  6
Continuous
370
    -3
390
F
  0
LAYER
  5
91D
330
2
100
AcDbSymbolTableRecord
100
AcDbLayerTableRecord
  2
cotas
 70
     0
 62
     1
  6
Continuous
370
    -3
390
F
  0
LAYER
  5
92F
330
2
100
AcDbSymbolTableRecord
100
AcDbLayerTableRecord
  2
Defpoints
 70
     0
 62
     7
  6
Continuous
290
     0
370
    -3
390
F
  0
LAYER
  5
BA5
330
2
100
AcDbSymbolTableRecord
100
AcDbLayerTableRecord
  2
SANINDUSA
 70
     0
 62
     3
  6
Continuous
370
    -3
390
F
  0
ENDTAB
  0
TABLE
  2
STYLE
  5
3
330
0
100
AcDbSymbolTable
 70
     3
  0
STYLE
  5
11
330
3
100
AcDbSymbolTableRecord
100
AcDbTextStyleTableRecord
  2
Standard
 70
     0
 40
0.0
 41
1.0
 50
0.0
 71
     0
 42
2.5
  3
Avgardn.ttf
  4

1001
ACAD
1000
AvantGarde Bk BT
1071
       34
  0
STYLE
  5
2C
330
3
100
AcDbSymbolTableRecord
100
AcDbTextStyleTableRecord
  2

 70
     1
 40
0.0
 41
1.0
 50
0.0
 71
     0
 42
2.5
  3
ltypeshp.shx
  4

  0
STYLE
  5
91F
330
3
100
AcDbSymbolTableRecord
100
AcDbTextStyleTableRecord
  2
SANINDUSA
 70
     0
 40
0.0
 41
1.0
 50
0.0
 71
     0
 42
2.5
  3
verdana.TTF
  4

1001
ACAD
1000
Verdana
1071
       34
  0
ENDTAB
  0
TABLE
  2
VIEW
  5
6
330
0
100
AcDbSymbolTable
 70
     0
  0
ENDTAB
  0
TABLE
  2
UCS
  5
7
330
0
100
AcDbSymbolTable
 70
     0
  0
ENDTAB
  0
TABLE
  2
APPID
  5
9
330
0
100
AcDbSymbolTable
 70
     6
  0
APPID
  5
12
330
9
100
AcDbSymbolTableRecord
100
AcDbRegAppTableRecord
  2
ACAD
 70
     0
  0
APPID
  5
3A
330
9
100
AcDbSymbolTableRecord
100
AcDbRegAppTableRecord
  2
DCO15
 70
     0
  0
APPID
  5
C82
330
9
100
AcDbSymbolTableRecord
100
AcDbRegAppTableRecord
  2
ACAD_DSTYLE_DIMEXT_LENGTH
 70
     0
  0
APPID
  5
C83
330
9
100
AcDbSymbolTableRecord
100
AcDbRegAppTableRecord
  2
ACAD_DSTYLE_DIMEXT_ENABLED
 70
     0
  0
APPID
  5
C84
330
9
100
AcDbSymbolTableRecord
100
AcDbRegAppTableRecord
  2
ACAD_DSTYLE_DIMJOGGED_JOGANGLE_SYMBOL
 70
     0
  0
APPID
  5
C85
330
9
100
AcDbSymbolTableRecord
100
AcDbRegAppTableRecord
  2
ACAD_DSTYLE_DIMARC_LENGTH_SYMBOL
 70
     0
  0
ENDTAB
  0
TABLE
  2
DIMSTYLE
  5
A
330
0
100
AcDbSymbolTable
 70
     2
100
AcDbDimStyleTable
 71
     1
340
921
  0
DIMSTYLE
105
45
330
A
100
AcDbSymbolTableRecord
100
AcDbDimStyleTableRecord
  2
STANDARD
 70
     0
289
     0
340
11
  0
DIMSTYLE
105
921
330
A
100
AcDbSymbolTableRecord
100
AcDbDimStyleTableRecord
  2
SANINDUSA
 70
     0
 41
2.0
 42
1.0
 43
1.0
 44
1.0
 73
     0
 74
     0
 77
     1
 78
     8
140
2.0
141
0.0
143
0.03937007874016
147
1.0
171
     3
172
     1
176
   256
177
   256
178
   256
179
     1
271
     1
272
     1
274
     3
278
    44
283
     0
284
     8
340
91F
371
    -1
372
    -1
  0
ENDTAB
  0
TABLE
  2
BLOCK_RECORD
  5
1
330
0
100
AcDbSymbolTable
 70
    42
  0
BLOCK_RECORD
  5
1F
330
1
100
AcDbSymbolTableRecord
100
AcDbBlockTableRecord
  2
*Model_Space
340
22
  0
BLOCK_RECORD
  5
1B
330
1
100
AcDbSymbolTableRecord
100
AcDbBlockTableRecord
  2
*Paper_Space
340
1E
  0
BLOCK_RECORD
  5
23
330
1
100
AcDbSymbolTableRecord
100
AcDbBlockTableRecord
  2
*Paper_Space0
340
26
  0
BLOCK_RECORD
  5
919
330
1
100
AcDbSymbolTableRecord
100
AcDbBlockTableRecord
  2
_DotSmall
340
0
  0
BLOCK_RECORD
  5
922
330
1
100
AcDbSymbolTableRecord
100
AcDbBlockTableRecord
  2
base para cotas
340
0
310
2800000020000000200000000100080000000000000400000000000000000000000000000000000000000000000080000080000000808000800000008000800080800000C0C0C000C0DCC000F0CAA6000020400000206000002080000020A0000020C0000020E00000400000004020000040400000406000004080000040A0
310
000040C0000040E00000600000006020000060400000606000006080000060A0000060C0000060E00000800000008020000080400000806000008080000080A0000080C0000080E00000A0000000A0200000A0400000A0600000A0800000A0A00000A0C00000A0E00000C0000000C0200000C0400000C0600000C0800000C0
310
A00000C0C00000C0E00000E0000000E0200000E0400000E0600000E0800000E0A00000E0C00000E0E00040000000400020004000400040006000400080004000A0004000C0004000E00040200000402020004020400040206000402080004020A0004020C0004020E000404000004040200040404000404060004040800040
310
40A0004040C0004040E00040600000406020004060400040606000406080004060A0004060C0004060E00040800000408020004080400040806000408080004080A0004080C0004080E00040A0000040A0200040A0400040A0600040A0800040A0A00040A0C00040A0E00040C0000040C0200040C0400040C0600040C08000
310
40C0A00040C0C00040C0E00040E0000040E0200040E0400040E0600040E0800040E0A00040E0C00040E0E00080000000800020008000400080006000800080008000A0008000C0008000E00080200000802020008020400080206000802080008020A0008020C0008020E00080400000804020008040400080406000804080
310
008040A0008040C0008040E00080600000806020008060400080606000806080008060A0008060C0008060E00080800000808020008080400080806000808080008080A0008080C0008080E00080A0000080A0200080A0400080A0600080A0800080A0A00080A0C00080A0E00080C0000080C0200080C0400080C0600080C0
310
800080C0A00080C0C00080C0E00080E0000080E0200080E0400080E0600080E0800080E0A00080E0C00080E0E000C0000000C0002000C0004000C0006000C0008000C000A000C000C000C000E000C0200000C0202000C0204000C0206000C0208000C020A000C020C000C020E000C0400000C0402000C0404000C0406000C0
310
408000C040A000C040C000C040E000C0600000C0602000C0604000C0606000C0608000C060A000C060C000C060E000C0800000C0802000C0804000C0806000C0808000C080A000C080C000C080E000C0A00000C0A02000C0A04000C0A06000C0A08000C0A0A000C0A0C000C0A0E000C0C00000C0C02000C0C04000C0C06000
310
C0C08000C0C0A000F0FBFF00A4A0A000808080000000FF0000FF000000FFFF00FF000000FF00FF00FFFF0000FFFFFF00A4A4A4A4A4A4A4A4A4A4A4A4A4A4A4A4A4A4A4A4A4A4A4A4A4A4A4A4A4A4A4A4A4A4A4A4A4A4A4A4A4A4A4A4A4A4A4A4A4A4A4A4A4A4A4A4A4A4A4A4A4A4A4A4A4A4A4A4A4A4A4A4A4A4A4A4A4A4A4
310
A4A4A4A4A4A4A4A4A4A4A4A4A4A4A4A4A4A4A4A4A4A4A4A4A4A4A4A4A4A4A4A4A4A4A4A4A4A4A4A4A4A4A4A4A4A4A4A4A4A4A4A4A4A4A4A4A4A4A4A4A4A4A4A4A4A4A4A4A4A4A4A4A4A4A4A4A4A4A4A4A4A4A4A4A4A4A4A4A4A4A4A4A4A4A4A4A4A4A4A4A4A4A4A4A4A4A4A4A4A4A4A4A4A4A4A4A4A4A4A4A4A4A4A4A4A4A4
310
A4A4A4A4A4A4A4A4A4A4A4A4A4A4A4A4A4A4A4A4A4A4A4A4A4A4A4A4A4A4A4A4A4A4A4A4A4A4A4A4A4A4A4A4A4A4A4A4A4A4A4A4A4A4A4A4A4A4A4A4A4A4A4A4A4A4A4A4A4A4A4A4A4A4A4A4A4A4A4A4A4A4A4A4A4A4A4A4A4A4A4A4A4A4A4A4A4A4A4A4A4A4A4A4A4A4A4A4A4A4A4A4A4A4A4A4A4A4A4A4A4A4A4A4A4A4A4
310
A4A4A4A4A4A4A4A4A4A4A4A4A4A4A4A4A4A4A4A4A4A4A4A4A4A4A4A4A4A4A4A4A4A4A4A4A4A4A4A4A4A4A4A4A4A4A4A4A4A4A4A4A4A4A4A4A4A4A4A4A4A4A4A4A4A4A4A4A4A4A4A4A4A4A4A4A4A4A4A4A4A4A4A4A4A4A4A4A4A4A4A4A4A4A4A4A4A4A4A4A4A4A4A4A4A4A4A4A4A4A4A4A4A4A4A4F9F9F9F9F9F9F9F9F9F9F9
310
F9F9F9F9F9F9F9F9F9F9F9F9F9F9F9F9F9F9F9A4A4F9F9F9F9F9F9F9F9F9F9F9F9F9F9F9F9F9F9F9F9F9F9F9F9F9F9F9F9F9F9A4A4F9F9F9F9F9F9F9F9F9F9F9F9F9F9F9F9F9F9F9F9F9F9F9F9F9F9F9F9F9F9A4A4F9A4A4A4A4A4A4A4A4A4A4A4A4A4A4A4A4A4A4A4A4A4A4A4A4A4A4A4A4F9A4A4A4A4A4A4A4A4A4A4A4A4
310
A4A4A4A4A4A4A4A4A4A4A4A4A4A4A4A4A4A4A4A4A4A4A4A4A4A4A4A4A4A4A4A4A4A4A4A4A4A4A4A4A4A4A4A4A4A4A4A4A4A4A4A4A4A4A4A4A4A4A4A4A4A4A4A4A4A4A4A4A4A4A4A4A4A4A4A4A4A4A4A4A4A4A4A4A4A4A4A4A4A4A4A4A4A4A4A4A4A4A4A4A4A4A4A4A4A4A4A4A4A4A4A4A4A4A4A4A4A4A4A4A4A4A4A4A4A4A4
310
A4A4A4A4A4A4A4A4A4A4A4A4A4A4A4A4A4A4A4A4A4A4A4A4A4A4A4A4A4A4A4A4A4A4A4A4A4A4A4A4A4A4A4A4A4A4A4A4A4A4A4A4A4A4A4A4A4A4A4A4A4A4A4A4A4A4A4A4A4A4A4A4A4A4A4A4A4A4A4A4A4A4A4A4A4A4A4A4A4A4A4A4A4A4A4A4A4A4A4A4A4A4A4A4A4A4A4A4A4A4A4A4A4A4A4A4A4A4A4A4A4A4A4A4A4A4A4
310
A4A4A4A4A4A4A4A4A4A4A4A4A4A4A4A4A4A4A4A4A4A4A4A4A4A4A4A4A4A4A4A4A4A4A4A4A4A4A4A4A4A4A4A4A4A4A4A4A4A4A4A4A4A4A4A4A4A4A4A4A4A4A4A4A4A4A4A4A4A4A4A4A4A4A4A4A4A4A4A4A4A4A4A4A4A4A4A4A4A4A4A4A4A4A4A4A4A4A4A4A4A4A4A4A4A4A4A4A4A4A4A4A4A4A4A4A4A4A4A4A4A4A4A4A4A4A4
310
A4A4A4A4A4A4A4A4A4A4A4A4A4A4A4A4A4A4A4A4A4A4A4A4A4A4A4A4A4A4A4A4A4A4A4A4A4A4A4A4A4A4A4A4A4A4A4A4A4A4A4A4A4A4A4A4
1001
ACAD
1000
DesignCenter Data
1002
{
1070
     1
1070
     4
1002
}
  0
BLOCK_RECORD
  5
AA8
330
1
100
AcDbSymbolTableRecord
100
AcDbBlockTableRecord
  2
_CLOSED
340
0
  0
ENDTAB
  0
ENDSEC
  0
SECTION
  2
BLOCKS
  0
BLOCK
  5
20
330
1F
100
AcDbEntity
  8
0
100
AcDbBlockBegin
  2
*Model_Space
 70
     0
 10
0.0
 20
0.0
 30
0.0
  3
*Model_Space
  1

  0
ENDBLK
  5
21
330
1F
100
AcDbEntity
  8
0
100
AcDbBlockEnd
  0
BLOCK
  5
1C
330
1B
100
AcDbEntity
 67
     1
  8
0
100
AcDbBlockBegin
  2
*Paper_Space
 70
     0
 10
0.0
 20
0.0
 30
0.0
  3
*Paper_Space
  1

  0
ENDBLK
  5
1D
330
1B
100
AcDbEntity
 67
     1
  8
0
100
AcDbBlockEnd
  0
BLOCK
  5
24
330
23
100
AcDbEntity
 67
     1
  8
0
100
AcDbBlockBegin
  2
*Paper_Space0
 70
     0
 10
0.0
 20
0.0
 30
0.0
  3
*Paper_Space0
  1

  0
ENDBLK
  5
25
330
23
100
AcDbEntity
 67
     1
  8
0
100
AcDbBlockEnd
  0
BLOCK
  5
91B
330
919
100
AcDbEntity
  8
0
100
AcDbBlockBegin
  2
_DotSmall
 70
     0
 10
0.0
 20
0.0
 30
0.0
  3
_DotSmall
  1

  0
LWPOLYLINE
  5
91A
330
919
100
AcDbEntity
  8
0
  6
ByBlock
 62
     0
100
AcDbPolyline
 90
        2
 70
     1
 43
0.5
 10
-0.0625
 20
0.0
 42
1.0
 10
0.0625
 20
0.0
 42
1.0
  0
ENDBLK
  5
91C
330
919
100
AcDbEntity
  8
0
100
AcDbBlockEnd
  0
BLOCK
  5
92A
330
922
100
AcDbEntity
  8
0
100
AcDbBlockBegin
  2
base para cotas
 70
     0
 10
0.0
 20
0.0
 30
0.0
  3
base para cotas
  1

  0
LINE
  5
B36
330
922
100
AcDbEntity
  8
cotas
100
AcDbLine
 10
0.0
 20
-30.0
 30
0.0
 11
327.1260136525398
 21
-30.0
 31
0.0
  0
LINE
  5
B37
330
922
100
AcDbEntity
  8
cotas
100
AcDbLine
 10
0.0
 20
-25.0
 30
0.0
 11
327.1260136525398
 21
-25.0
 31
0.0
  0
LINE
  5
B38
330
922
100
AcDbEntity
  8
cotas
100
AcDbLine
 10
0.0
 20
-20.0
 30
0.0
 11
327.1260136525398
 21
-20.0
 31
0.0
  0
LINE
  5
B39
330
922
100
AcDbEntity
  8
cotas
100
AcDbLine
 10
0.0
 20
-15.0
 30
0.0
 11
327.1260136525398
 21
-15.0
 31
0.0
  0
LINE
  5
B3A
330
922
100
AcDbEntity
  8
cotas
100
AcDbLine
 10
0.0
 20
-10.0
 30
0.0
 11
327.1260136525398
 21
-10.0
 31
0.0
  0
LINE
  5
B3B
330
922
100
AcDbEntity
  8
cotas
100
AcDbLine
 10
0.0
 20
0.0
 30
0.0
 11
0.0
 21
-30.0
 31
0.0
  0
LINE
  5
B3C
330
922
100
AcDbEntity
  8
cotas
100
AcDbLine
 10
327.1260136525398
 20
-30.0
 30
0.0
 11
327.1260136525398
 21
0.0
 31
0.0
  0
ENDBLK
  5
92B
330
922
100
AcDbEntity
  8
0
100
AcDbBlockEnd
  0
BLOCK
  5
AAD
330
AA8
100
AcDbEntity
  8
0
100
AcDbBlockBegin
  2
_CLOSED
 70
     0
 10
0.0
 20
0.0
 30
0.0
  3
_CLOSED
  1

  0
LINE
  5
AA9
330
AA8
100
AcDbEntity
  8
0
100
AcDbLine
 10
-1.0
 20
0.166667
 30
0.0
 11
0.0
 21
0.0
 31
0.0
  0
LINE
  5
AAA
330
AA8
100
AcDbEntity
  8
0
100
AcDbLine
 10
0.0
 20
0.0
 30
0.0
 11
-1.0
 21
-0.166667
 31
0.0
  0
LINE
  5
AAB
330
AA8
100
AcDbEntity
  8
0
100
AcDbLine
 10
-1.0
 20
0.166667
 30
0.0
 11
-1.0
 21
-0.166667
 31
0.0
  0
LINE
  5
AAC
330
AA8
100
AcDbEntity
  8
0
100
AcDbLine
 10
0.0
 20
0.0
 30
0.0
 11
-1.0
 21
0.0
 31
0.0
  0
ENDBLK
  5
AAE
330
AA8
100
AcDbEntity
  8
0
100
AcDbBlockEnd
  0
ENDSEC
  0
SECTION
  2
ENTITIES
  0
ARC
  5
E6A
330
1F
100
AcDbEntity
  8
SANINDUSA
100
AcDbCircle
 10
837.6370971518749
 20
971.8304704119292
 30
0.0
 40
0.252152999022321
100
AcDbArc
 50
278.3191306063127
 51
290.1932245083123
  0
ARC
  5
E6B
330
1F
100
AcDbEntity
  8
SANINDUSA
100
AcDbCircle
 10
837.6234813769535
 20
971.829312150843
 30
0.0
 40
0.2509603976142347
100
AcDbArc
 50
249.7917104464901
 51
261.7077192839178
  0
LINE
  5
E6C
330
1F
100
AcDbEntity
  8
SANINDUSA
100
AcDbLine
 10
837.5944968174815
 20
971.5717823993191
 30
0.0
 11
837.5953746164658
 21
971.5466455252729
 31
0.0
  0
LINE
  5
E6D
330
1F
100
AcDbEntity
  8
SANINDUSA
100
AcDbLine
 10
837.6655094246746
 20
971.5466455252729
 30
0.0
 11
837.6663869516784
 21
971.5717746108133
 31
0.0
  0
ARC
  5
E6E
330
1F
100
AcDbEntity
  8
SANINDUSA
100
AcDbCircle
 10
837.5973733981199
 20
971.5467153242663
 30
0.0
 40
0.0019999999999999
100
AcDbArc
 50
181.9999999972438
 51
270.0
  0
ARC
  5
E6F
330
1F
100
AcDbEntity
  8
SANINDUSA
100
AcDbCircle
 10
837.6635106430207
 20
971.5467153242663
 30
0.0
 40
0.002
100
AcDbArc
 50
270.0
 51
358.0000000027562
  0
LWPOLYLINE
  5
E70
330
1F
100
AcDbEntity
  8
SANINDUSA
100
AcDbPolyline
 90
       14
 70
   128
 43
0.0
 10
837.6664209700116
 20
971.5717686923483
 10
837.6664905640561
 20
971.5729130804863
 10
837.6668647922576
 20
971.5745083259493
 10
837.6674528138716
 20
971.5759375639041
 10
837.6682004952913
 20
971.5771821860395
 10
837.6690657849566
 20
971.5782455876999
 10
837.6699831382497
 20
971.5791087771332
 10
837.6708777524953
 20
971.579767529497
 10
837.671668660557
 20
971.5802317485227
 10
837.6723149582833
 20
971.5805402927085
 10
837.6728241018398
 20
971.5807417974755
 10
837.6732058675512
 20
971.5808689477544
 10
837.6734616711644
 20
971.5809415481466
 10
837.6735803088958
 20
971.5809706841342
  0
LWPOLYLINE
  5
E71
330
1F
100
AcDbEntity
  8
SANINDUSA
100
AcDbPolyline
 90
       14
 70
   128
 43
0.0
 10
837.5872899051152
 20
971.5809749482152
 10
837.5872871446626
 20
971.5809754867768
 10
837.5873905036071
 20
971.5809505245413
 10
837.5876584635792
 20
971.5808753552975
 10
837.5880750998364
 20
971.5807364724547
 10
837.5886571117511
 20
971.5805017630312
 10
837.589396926729
 20
971.5801339047697
 10
837.5903004607378
 20
971.579567909246
 10
837.5913235531038
 20
971.578738564499
 10
837.5923269736837
 20
971.5776579808705
 10
837.5932046405546
 20
971.5763618741586
 10
837.5938885632967
 20
971.5748897213105
 10
837.5943307901788
 20
971.5732927155427
 10
837.5944873523087
 20
971.5717761294383
  0
ARC
  5
E75
330
1F
100
AcDbEntity
  8
SANINDUSA
100
AcDbCircle
 10
837.6304420205702
 20
971.1781849671092
 30
0.0
 40
0.3727501639410579
100
AcDbArc
 50
86.53940008678253
 51
93.4605999132175
  0
ARC
  5
E78
330
1F
100
AcDbEntity
  8
SANINDUSA
100
AcDbCircle
 10
837.6074823331149
 20
971.5547730139208
 30
0.0
 40
0.0045409043075462
100
AcDbArc
 50
179.0749929449962
 51
275.8101522824786
  0
LINE
  5
E79
330
1F
100
AcDbEntity
  8
SANINDUSA
100
AcDbLine
 10
837.6029420205702
 20
971.5548463209959
 30
0.0
 11
837.6029420205702
 21
971.7157153242663
 31
0.0
  0
LINE
  5
E7B
330
1F
100
AcDbEntity
  8
SANINDUSA
100
AcDbLine
 10
837.6579420205702
 20
971.7157153242663
 30
0.0
 11
837.6579420205702
 21
971.5548463209959
 31
0.0
  0
ARC
  5
E7C
330
1F
100
AcDbEntity
  8
SANINDUSA
100
AcDbCircle
 10
837.6534013704381
 20
971.5547733815926
 30
0.0
 40
0.0045412359309201
100
AcDbArc
 50
264.1945547044944
 51
0.9203000526749002
  0
LINE
  5
E7D
330
1F
100
AcDbEntity
  8
SANINDUSA
100
AcDbLine
 10
837.6638225932424
 20
971.7292153242663
 30
0.0
 11
837.8704420205703
 21
971.7292153242663
 31
0.0
  0
LINE
  5
E7E
330
1F
100
AcDbEntity
  8
SANINDUSA
100
AcDbLine
 10
837.8704420205703
 20
971.7272153242664
 30
0.0
 11
837.8704420205703
 21
971.7292153242663
 31
0.0
  0
ARC
  5
E81
330
1F
100
AcDbEntity
  8
SANINDUSA
100
AcDbCircle
 10
837.8624420205703
 20
971.7272153242664
 30
0.0
 40
0.0080000000000001
100
AcDbArc
 50
270.0
 51
0.0
  0
LINE
  5
E82
330
1F
100
AcDbEntity
  8
SANINDUSA
100
AcDbLine
 10
837.8624420205703
 20
971.7192153242663
 30
0.0
 11
837.6629211071966
 21
971.7192153242663
 31
0.0
  0
LINE
  5
E84
330
1F
100
AcDbEntity
  8
SANINDUSA
100
AcDbLine
 10
837.597962933944
 20
971.7192153242663
 30
0.0
 11
837.3984420205703
 21
971.7192153242663
 31
0.0
  0
ARC
  5
E85
330
1F
100
AcDbEntity
  8
SANINDUSA
100
AcDbCircle
 10
837.3984420205703
 20
971.7272153242664
 30
0.0
 40
0.008
100
AcDbArc
 50
180.0
 51
270.0
  0
LINE
  5
E88
330
1F
100
AcDbEntity
  8
SANINDUSA
100
AcDbLine
 10
837.3904420205702
 20
971.7292153242663
 30
0.0
 11
837.5970614478982
 21
971.7292153242663
 31
0.0
  0
LINE
  5
E8A
330
1F
100
AcDbEntity
  8
SANINDUSA
100
AcDbLine
 10
837.3904420205702
 20
971.7272153242664
 30
0.0
 11
837.3904420205702
 21
971.7292153242663
 31
0.0
  0
LWPOLYLINE
  5
E8B
330
1F
100
AcDbEntity
  8
SANINDUSA
100
AcDbPolyline
 90
        3
 70
   128
 43
0.0
 10
837.6304420205702
 20
971.7215319065003
 10
837.6416057653168
 20
971.7217236950569
 10
837.6527305847268
 20
971.7224170592713
  0
LWPOLYLINE
  5
E8F
330
1F
100
AcDbEntity
  8
SANINDUSA
100
AcDbPolyline
 90
        7
 70
   128
 43
0.0
 10
837.6527305847268
 20
971.7224170592713
 10
837.6543481244528
 20
971.7223752821558
 10
837.6558039279109
 20
971.7220190008045
 10
837.6582415276724
 20
971.7209714534225
 10
837.6602837606824
 20
971.7198720539105
 10
837.6610549793511
 20
971.7194353642337
 10
837.6614303993925
 20
971.7192191489241
  0
LINE
  5
E90
330
1F
100
AcDbEntity
  8
SANINDUSA
100
AcDbLine
 10
837.6629211071966
 20
971.7192153242663
 30
0.0
 11
837.6614420439986
 21
971.7192153242663
 31
0.0
  0
LINE
  5
E91
330
1F
100
AcDbEntity
  8
SANINDUSA
100
AcDbLine
 10
837.6304420205702
 20
971.7292153242663
 30
0.0
 11
837.6638225932424
 21
971.7292153242663
 31
0.0
  0
LWPOLYLINE
  5
E95
330
1F
100
AcDbEntity
  8
SANINDUSA
100
AcDbPolyline
 90
        3
 70
   128
 43
0.0
 10
837.608153465934
 20
971.7224170833485
 10
837.6192764020968
 20
971.721723745755
 10
837.6304420205702
 20
971.7215319065003
  0
LWPOLYLINE
  5
E96
330
1F
100
AcDbEntity
  8
SANINDUSA
100
AcDbPolyline
 90
        7
 70
   128
 43
0.0
 10
837.5994536414946
 20
971.7192191489829
 10
837.5998273010909
 20
971.7194343640253
 10
837.6006008791323
 20
971.719872396353
 10
837.6026380510246
 20
971.7209692176364
 10
837.6050735659976
 20
971.7220168548418
 10
837.6065282893318
 20
971.7223741762962
 10
837.608153465934
 20
971.7224170833485
  0
LINE
  5
E97
330
1F
100
AcDbEntity
  8
SANINDUSA
100
AcDbLine
 10
837.5994420205703
 20
971.7192153242663
 30
0.0
 11
837.597962933944
 21
971.7192153242663
 31
0.0
  0
LINE
  5
E98
330
1F
100
AcDbEntity
  8
SANINDUSA
100
AcDbLine
 10
837.5970614478982
 20
971.7292153242663
 30
0.0
 11
837.6304420205702
 21
971.7292153242663
 31
0.0
  0
ARC
  5
E9C
330
1F
100
AcDbEntity
  8
SANINDUSA
100
AcDbCircle
 10
837.6614411871296
 20
971.7157199988969
 30
0.0
 40
0.0034991666562411
100
AcDbArc
 50
90.17663999722222
 51
179.9865189392752
  0
ARC
  5
E9D
330
1F
100
AcDbEntity
  8
SANINDUSA
100
AcDbCircle
 10
837.5994428540241
 20
971.715719998968
 30
0.0
 40
0.0034991666430936
100
AcDbArc
 50
0.0134826500861296
 51
89.82336436702709
  0
LINE
  5
EA0
330
1F
100
AcDbEntity
  8
SANINDUSA
100
AcDbLine
 10
837.5997000047757
 20
971.5814599804179
 30
0.0
 11
837.6010828524581
 21
971.5814606732722
 31
0.0
  0
ARC
  5
EA5
330
1F
100
AcDbEntity
  8
SANINDUSA
100
AcDbCircle
 10
837.6005929664691
 20
971.5791708764639
 30
0.0
 40
0.0023416143376821
100
AcDbArc
 50
10.96366730311769
 51
77.92401847533816
  0
LINE
  5
EA8
330
1F
100
AcDbEntity
  8
SANINDUSA
100
AcDbLine
 10
837.6598011886823
 20
971.5814606732722
 30
0.0
 11
837.6611840363649
 21
971.5814599804179
 31
0.0
  0
ARC
  5
EAD
330
1F
100
AcDbEntity
  8
SANINDUSA
100
AcDbCircle
 10
837.6503179352566
 20
971.7996173974819
 30
0.0
 40
0.2185942354928268
100
AcDbArc
 50
289.7324398560909
 51
309.1354627969891
  0
LWPOLYLINE
  5
EAE
330
1F
100
AcDbEntity
  8
SANINDUSA
100
AcDbPolyline
 90
       10
 70
   128
 43
0.0
 10
837.6611940356944
 20
971.5814572359839
 10
837.6612809665065
 20
971.5814574457827
 10
837.6643813914871
 20
971.5814705802197
 10
837.6671498627642
 20
971.5814936720541
 10
837.6707840954827
 20
971.5815241188632
 10
837.6733654982732
 20
971.5815107582031
 10
837.6743621873888
 20
971.5814648362535
 10
837.6748607707671
 20
971.5813828487148
 10
837.6746215077325
 20
971.5811836700069
 10
837.6735803088958
 20
971.5809706841342
  0
LWPOLYLINE
  5
EB1
330
1F
100
AcDbEntity
  8
SANINDUSA
100
AcDbPolyline
 90
       12
 70
   128
 43
0.0
 10
837.7883068772808
 20
971.6300812246471
 10
837.7958028670114
 20
971.6363774650233
 10
837.8035592363996
 20
971.6434204172561
 10
837.8114631936506
 20
971.6512720805745
 10
837.8193222783037
 20
971.6599618637678
 10
837.8268440097029
 20
971.6694382612002
 10
837.8326146396579
 20
971.6778988695677
 10
837.8376965692494
 20
971.686658740799
 10
837.8418788099228
 20
971.6954102008585
 10
837.8450526902556
 20
971.703831537931
 10
837.8473722239133
 20
971.7117503080933
 10
837.8490290452013
 20
971.7192153242663
  0
LWPOLYLINE
  5
EB4
330
1F
100
AcDbEntity
  8
SANINDUSA
100
AcDbPolyline
 90
       11
 70
   128
 43
0.0
 10
837.5872871446626
 20
971.5809754867768
 10
837.5865740872754
 20
971.5811060084506
 10
837.5860431029112
 20
971.581262308342
 10
837.5860228302618
 20
971.5813826637129
 10
837.5869906895342
 20
971.5814933996233
 10
837.5892183879241
 20
971.5815264945613
 10
837.5925032515448
 20
971.5815053621398
 10
837.5969619100246
 20
971.5814676190005
 10
837.5996626860928
 20
971.5814573664449
 10
837.5996627290671
 20
971.5814573663903
 10
837.5996627290671
 20
971.5814573663903
  0
ARC
  5
EB5
330
1F
100
AcDbEntity
  8
SANINDUSA
100
AcDbCircle
 10
837.6105640450125
 20
971.7996170944841
 30
0.0
 40
0.2185926997439689
100
AcDbArc
 50
230.864906069601
 51
250.2803824497114
  0
LWPOLYLINE
  5
EB6
330
1F
100
AcDbEntity
  8
SANINDUSA
100
AcDbPolyline
 90
       12
 70
   128
 43
0.0
 10
837.4118549959391
 20
971.7192153242663
 10
837.4135118877799
 20
971.7117500294483
 10
837.4158316329443
 20
971.703830675931
 10
837.4190059488478
 20
971.6954084562312
 10
837.4231885219161
 20
971.6866565696705
 10
837.4282704798559
 20
971.6778969943264
 10
837.4340411073758
 20
971.669436706748
 10
837.4415630019701
 20
971.6599603409681
 10
837.4494220875259
 20
971.6512707250469
 10
837.4573255495459
 20
971.6434196845266
 10
837.4650814577504
 20
971.6363772140322
 10
837.4725771638596
 20
971.6300812246473
  0
ARC
  5
EBE
330
1F
100
AcDbEntity
  8
SANINDUSA
100
AcDbCircle
 10
837.6602910746715
 20
971.5791708764639
 30
0.0
 40
0.0023416143376912
100
AcDbArc
 50
102.0759815182922
 51
173.3941307729454
  0
LINE
  5
EC9
330
1F
100
AcDbEntity
  8
SANINDUSA
100
AcDbLine
 10
837.6304420205702
 20
971.5447153242664
 30
0.0
 11
837.5973733981199
 21
971.5447153242664
 31
0.0
  0
LINE
  5
ECA
330
1F
100
AcDbEntity
  8
SANINDUSA
100
AcDbLine
 10
837.6635106430207
 20
971.5447153242664
 30
0.0
 11
837.6304420205702
 21
971.5447153242664
 31
0.0
  0
LWPOLYLINE
  5
EDC
330
1F
100
AcDbEntity
  8
SANINDUSA
100
AcDbPolyline
 90
       26
 70
   128
 43
0.0
 10
836.963074710832
 20
971.4881785381059
 10
836.9529823733426
 20
971.4895127461781
 10
836.9429328328305
 20
971.4912243257227
 10
836.9329644232061
 20
971.4933109530683
 10
836.9230684948945
 20
971.4957796959035
 10
836.9132837945143
 20
971.4986271865756
 10
836.9036038973167
 20
971.5018627883418
 10
836.8942825536381
 20
971.5053969723978
 10
836.8851112901584
 20
971.5093037841496
 10
836.8760483795185
 20
971.5136169856501
 10
836.8671779469652
 20
971.5183129736505
 10
836.8585722358265
 20
971.5233620944601
 10
836.8501844948887
 20
971.5288021564484
 10
836.8420610938795
 20
971.5346199946591
 10
836.8342066563473
 20
971.5408324927395
 10
836.8226197042588
 20
971.5512617074169
 10
836.8118529826219
 20
971.5626774204197
 10
836.8029759451763
 20
971.5737972489179
 10
836.7949950901213
 20
971.5856930304783
 10
836.7886460194103
 20
971.5970965593024
 10
836.7832263079989
 20
971.6090674980552
 10
836.7787188823017
 20
971.6219204194802
 10
836.7754098979197
 20
971.6351314596003
 10
836.77385890742
 20
971.6444197348302
 10
836.7729199333993
 20
971.6537998474919
 10
836.7726044027499
 20
971.6632110276545
  0
LWPOLYLINE
  5
EDE
330
1F
100
AcDbEntity
  8
SANINDUSA
100
AcDbPolyline
 90
       24
 70
   128
 43
0.0
 10
837.2162066987305
 20
971.6632110276545
 10
837.2153502068286
 20
971.6531658246466
 10
837.2142698658276
 20
971.6431439281802
 10
837.2125987150198
 20
971.6328071505348
 10
837.2101925678633
 20
971.6225861704982
 10
837.2070229981872
 20
971.6125836721053
 10
837.2030615798212
 20
971.6029023393906
 10
837.1965312828972
 20
971.5902695467736
 10
837.1889481343691
 20
971.5782350062728
 10
837.180456953137
 20
971.5668766732289
 10
837.1710943932228
 20
971.5562248615338
 10
837.1628208444832
 20
971.548061269531
 10
837.1540631807503
 20
971.5404018549619
 10
837.1448968173014
 20
971.5332500642929
 10
837.130538791777
 20
971.5234784691856
 10
837.1154718937658
 20
971.5148410190613
 10
837.1077102238601
 20
971.5109797853274
 10
837.0997996533359
 20
971.5074338229852
 10
837.0890111595137
 20
971.5032269853178
 10
837.0780009743118
 20
971.4996087042953
 10
837.0668341387613
 20
971.4965288533271
 10
837.0532113921575
 20
971.4933942752091
 10
837.0394929532732
 20
971.4906804491144
 10
837.0257342571536
 20
971.4881771053514
  0
LWPOLYLINE
  5
EE0
330
1F
100
AcDbEntity
  8
SANINDUSA
100
AcDbPolyline
 90
       18
 70
   128
 43
0.0
 10
836.9944044027498
 20
971.8400110276546
 10
837.0045793666244
 20
971.8398255345087
 10
837.0147543304991
 20
971.839267698262
 10
837.0248902515655
 20
971.8383380889022
 10
837.0349987023525
 20
971.8370333309332
 10
837.0450412342458
 20
971.8353552984606
 10
837.055027675272
 20
971.8332982425982
 10
837.0649200285479
 20
971.8308641694211
 10
837.0747252905134
 20
971.8280444646735
 10
837.0844040636523
 20
971.8248427095188
 10
837.0939616111964
 20
971.8212485507581
 10
837.1033570268622
 20
971.8172673896864
 10
837.1125925523124
 20
971.8128860226837
 10
837.1216241719382
 20
971.8081115796243
 10
837.1304513749468
 20
971.8029291079314
 10
837.1446292646153
 20
971.7933803619004
 10
837.1514629503561
 20
971.7881516330921
 10
837.1580711904927
 20
971.782640954221
  0
LWPOLYLINE
  5
EE4
330
1F
100
AcDbEntity
  8
SANINDUSA
100
AcDbPolyline
 90
       27
 70
   128
 43
0.0
 10
837.026442200775
 20
971.481934661533
 10
837.0499721772008
 20
971.4863275528383
 10
837.0605776316534
 20
971.4885889840605
 10
837.0710550553432
 20
971.4911359122867
 10
837.0814292040586
 20
971.494070945266
 10
837.0915881357925
 20
971.4974561325771
 10
837.1015743152902
 20
971.5013562041944
 10
837.1113546630907
 20
971.5057476258612
 10
837.1209082570008
 20
971.5106054441772
 10
837.1302374421691
 20
971.5159187358883
 10
837.1393098639677
 20
971.5216596963902
 10
837.1481088275654
 20
971.5278087621268
 10
837.1566093823496
 20
971.5343635647462
 10
837.1647546753493
 20
971.5413140301103
 10
837.1725219582545
 20
971.5486836376678
 10
837.1798505588357
 20
971.5564605057265
 10
837.186722057744
 20
971.5646438927917
 10
837.1931075682445
 20
971.5732080312607
 10
837.1989866333077
 20
971.5821273650645
 10
837.2043231217457
 20
971.5913563020224
 10
837.2090654279865
 20
971.6009024802838
 10
837.2130988512234
 20
971.6106977391083
 10
837.2163472517668
 20
971.620777916399
 10
837.2187296735621
 20
971.6311259066262
 10
837.2203819074986
 20
971.6416211073539
 10
837.2215618926464
 20
971.6524026397767
 10
837.2224873136532
 20
971.6632110276545
  0
ARC
  5
EE5
330
1F
100
AcDbEntity
  8
SANINDUSA
100
AcDbCircle
 10
836.9944364197653
 20
971.7643917113827
 30
0.0
 40
0.2842662423945787
100
AcDbArc
 50
269.9935467565187
 51
276.4647322572098
  0
ARC
  5
EE8
330
1F
100
AcDbEntity
  8
SANINDUSA
100
AcDbCircle
 10
836.994436911498
 20
971.7643829941435
 30
0.0
 40
0.2779719683898949
100
AcDbArc
 50
269.9932992721124
 51
276.4647007974001
  0
LWPOLYLINE
  5
EE9
330
1F
100
AcDbEntity
  8
SANINDUSA
100
AcDbPolyline
 90
       11
 70
   128
 43
0.0
 10
836.8384869879232
 20
971.7737422341217
 10
836.8293695388144
 20
971.7652435038766
 10
836.8209190813812
 20
971.7561874355583
 10
836.8132144778323
 20
971.7466234387639
 10
836.8063264075608
 20
971.7366098124276
 10
836.8003153900527
 20
971.7262126502923
 10
836.7952301063736
 20
971.7155044286911
 10
836.7904727164733
 20
971.7025898748733
 10
836.7870832319759
 20
971.6894817716475
 10
836.7850674485856
 20
971.6763124363197
 10
836.7844044027497
 20
971.6632110276545
  0
LWPOLYLINE
  5
EEA
330
1F
100
AcDbEntity
  8
SANINDUSA
100
AcDbPolyline
 90
       21
 70
   128
 43
0.0
 10
836.9644044027497
 20
971.4999033800838
 10
836.9500863250571
 20
971.501927197684
 10
836.9356501887418
 20
971.5048005394637
 10
836.9212113218631
 20
971.5085574397367
 10
836.9068952264612
 20
971.5132195409591
 10
836.8928349416123
 20
971.5187941673077
 10
836.8791677599485
 20
971.5252728121365
 10
836.8667654028307
 20
971.5321867549061
 10
836.8549475298738
 20
971.5398469271491
 10
836.8438206026533
 20
971.548205109063
 10
836.8334819378416
 20
971.5572008434394
 10
836.8240169264023
 20
971.5667628535523
 10
836.8154966976504
 20
971.5768109142823
 10
836.8079763611691
 20
971.5872580742114
 10
836.8014939162886
 20
971.598013100986
 10
836.7960698678746
 20
971.6089830091899
 10
836.7917075346507
 20
971.6200755304582
 10
836.7884441020583
 20
971.6310029272637
 10
836.7861662378059
 20
971.6418825870801
 10
836.7848357616081
 20
971.6526407712885
 10
836.7844044027497
 20
971.6632110276545
  0
LWPOLYLINE
  5
EEB
330
1F
100
AcDbEntity
  8
SANINDUSA
100
AcDbPolyline
 90
        3
 70
   128
 43
0.0
 10
836.9644044027497
 20
971.4999033800838
 10
836.9811686286578
 20
971.4985390821549
 10
836.9944044027498
 20
971.4982110276546
  0
LWPOLYLINE
  5
EEC
330
1F
100
AcDbEntity
  8
SANINDUSA
100
AcDbPolyline
 90
        3
 70
   128
 43
0.0
 10
836.9944044027498
 20
971.4982110276546
 10
837.0112447375028
 20
971.4987424217213
 10
837.0244044027497
 20
971.4999033800838
  0
LWPOLYLINE
  5
EED
330
1F
100
AcDbEntity
  8
SANINDUSA
100
AcDbPolyline
 90
       21
 70
   128
 43
0.0
 10
837.0244044027497
 20
971.4999033800838
 10
837.0387224804424
 20
971.501927197684
 10
837.0531586167578
 20
971.5048005394637
 10
837.0675974836364
 20
971.5085574397367
 10
837.0819135790382
 20
971.5132195409591
 10
837.0959738638873
 20
971.5187941673077
 10
837.1096410455511
 20
971.5252728121365
 10
837.1220434026689
 20
971.5321867549061
 10
837.1338612756257
 20
971.5398469271491
 10
837.1449882028462
 20
971.548205109063
 10
837.1553268676578
 20
971.5572008434394
 10
837.1647918790973
 20
971.5667628535523
 10
837.1733121078491
 20
971.5768109142823
 10
837.1808324443303
 20
971.5872580742114
 10
837.187314889211
 20
971.598013100986
 10
837.1927389376249
 20
971.6089830091899
 10
837.1971012708488
 20
971.6200755304582
 10
837.2003647034413
 20
971.6310029272637
 10
837.2026425676937
 20
971.6418825870801
 10
837.2039730438915
 20
971.6526407712885
 10
837.2044044027498
 20
971.6632110276545
  0
LWPOLYLINE
  5
EEE
330
1F
100
AcDbEntity
  8
SANINDUSA
100
AcDbPolyline
 90
       11
 70
   128
 43
0.0
 10
837.2044044027498
 20
971.6632110276545
 10
837.2039279123374
 20
971.6743198976498
 10
837.202481028116
 20
971.6854915072497
 10
837.2000473234935
 20
971.6966476633507
 10
837.1966240262121
 20
971.7077078797732
 10
837.192222553096
 20
971.71859123053
 10
837.1868685522517
 20
971.7292182818143
 10
837.1793900223046
 20
971.7413108717678
 10
837.1707308552034
 20
971.7528271830966
 10
837.1609995592415
 20
971.763665924475
 10
837.1503218175766
 20
971.7737422341217
  0
LWPOLYLINE
  5
EEF
330
1F
100
AcDbEntity
  8
SANINDUSA
100
AcDbPolyline
 90
       12
 70
   128
 43
0.0
 10
837.1503218175766
 20
971.7737422341217
 10
837.139127413087
 20
971.7827719864843
 10
837.1269220362082
 20
971.791210316068
 10
837.1137832690759
 20
971.7989570960991
 10
837.0998094946676
 20
971.805920983229
 10
837.0851177405963
 20
971.8120226797854
 10
837.0698405494053
 20
971.8171977737233
 10
837.0550295123194
 20
971.8211857112187
 10
837.0399527653702
 20
971.8242831205605
 10
837.0247390123315
 20
971.8264805117067
 10
837.009515443654
 20
971.8277832999362
 10
836.9944044027498
 20
971.8282110276545
  0
LWPOLYLINE
  5
EF0
330
1F
100
AcDbEntity
  8
SANINDUSA
100
AcDbPolyline
 90
       12
 70
   128
 43
0.0
 10
836.9944044027498
 20
971.8282110276545
 10
836.9783727259084
 20
971.8277295153237
 10
836.9622226800542
 20
971.8262620517149
 10
836.9461008515797
 20
971.8237868219564
 10
836.9301594611391
 20
971.8203000295424
 10
836.914551836559
 20
971.8158168238172
 10
836.8994276326676
 20
971.8103713766584
 10
836.8857375071954
 20
971.8044026076464
 10
836.872710894546
 20
971.7976822805075
 10
836.8604429792423
 20
971.7902791192038
 10
836.8490138472091
 20
971.7822709497465
 10
836.8384869879232
 20
971.7737422341217
  0
LWPOLYLINE
  5
EF6
330
1F
100
AcDbEntity
  8
SANINDUSA
100
AcDbPolyline
 90
       14
 70
   128
 43
0.0
 10
837.2224899596131
 20
971.6632110276545
 10
837.2219601142163
 20
971.6756757374811
 10
837.2203892098065
 20
971.6880528863127
 10
837.2182450290889
 20
971.6984594810449
 10
837.2153655537397
 20
971.7087236183623
 10
837.2117873947466
 20
971.7187659665745
 10
837.2075468822398
 20
971.7285317876052
 10
837.2026707454237
 20
971.7380083636468
 10
837.1971981663469
 20
971.7471658690412
 10
837.1911675643751
 20
971.7559770225799
 10
837.1846149080294
 20
971.7644182307688
 10
837.1775768011662
 20
971.7724741054075
 10
837.1700924593264
 20
971.7801319071686
 10
837.1621990823674
 20
971.7873810738137
  0
LWPOLYLINE
  5
EF7
330
1F
100
AcDbEntity
  8
SANINDUSA
100
AcDbPolyline
 90
       13
 70
   128
 43
0.0
 10
837.1580711904927
 20
971.782640954221
 10
837.1656296423108
 20
971.7757033690599
 10
837.1728270523439
 20
971.768351194251
 10
837.1796007652415
 20
971.7606179220192
 10
837.1859381415189
 20
971.7524802825401
 10
837.1917694355948
 20
971.7439893241376
 10
837.1970855317567
 20
971.7351211440998
 10
837.2027852076666
 20
971.7238685958957
 10
837.2075802082449
 20
971.7121118915898
 10
837.2112506494941
 20
971.7004316959735
 10
837.2139489095047
 20
971.6884016184522
 10
837.2156322675497
 20
971.675906206577
 10
837.2162044027497
 20
971.6632110276545
  0
LWPOLYLINE
  5
EF8
330
1F
100
AcDbEntity
  8
SANINDUSA
100
AcDbPolyline
 90
        3
 70
   128
 43
0.0
 10
836.9944044027498
 20
971.4682110276545
 10
837.0111360482649
 20
971.4686819011978
 10
837.027784975422
 20
971.4700944598012
  0
LWPOLYLINE
  5
EF9
330
1F
100
AcDbEntity
  8
SANINDUSA
100
AcDbPolyline
 90
        3
 70
   128
 43
0.0
 10
836.9610238300776
 20
971.4700944598012
 10
836.9776727574583
 20
971.4686819011852
 10
836.9944044027498
 20
971.4682110276545
  0
LWPOLYLINE
  5
EFF
330
1F
100
AcDbEntity
  8
SANINDUSA
100
AcDbPolyline
 90
       12
 70
   128
 43
0.0
 10
836.9944044027498
 20
971.8582110276544
 10
836.9753388946065
 20
971.8575987194784
 10
836.9563490571877
 20
971.8557596015875
 10
836.9375377386312
 20
971.8526922887182
 10
836.919035261992
 20
971.8484050496698
 10
836.9009950095424
 20
971.8429240280112
 10
836.8862427700614
 20
971.8374016086142
 10
836.8718216964161
 20
971.8310021394104
 10
836.8578268063687
 20
971.8237310291842
 10
836.8441536901803
 20
971.8154718907555
 10
836.8311064559438
 20
971.8063410121398
 10
836.8187851923732
 20
971.7963660987807
  0
LWPOLYLINE
  5
F00
330
1F
100
AcDbEntity
  8
SANINDUSA
100
AcDbPolyline
 90
       12
 70
   128
 43
0.0
 10
837.2344044027498
 20
971.6632110276545
 10
837.2338990994897
 20
971.6759074679414
 10
837.2323965097693
 20
971.688476757451
 10
837.2299215672079
 20
971.7008602860001
 10
837.2264879313448
 20
971.7130560623498
 10
837.2221230456725
 20
971.7249976857859
 10
837.2168582479622
 20
971.7366327957746
 10
837.2095282724986
 20
971.7499179469388
 10
837.2010810680341
 20
971.7626043614671
 10
837.1916121379822
 20
971.7746137731824
 10
837.1812242293341
 20
971.7858835141973
 10
837.1700236131264
 20
971.7963660987807
  0
LWPOLYLINE
  5
F01
330
1F
100
AcDbEntity
  8
SANINDUSA
100
AcDbPolyline
 90
       22
 70
   128
 43
0.0
 10
836.7544044027498
 20
971.6632110276545
 10
836.7549243172152
 20
971.6503324819523
 10
836.7564707223548
 20
971.6375819337759
 10
836.7590183389888
 20
971.6250206577702
 10
836.7625552554796
 20
971.6126464636571
 10
836.7670441830352
 20
971.6005540396311
 10
836.7724481237202
 20
971.5887967947972
 10
836.7799740216186
 20
971.5753727243322
 10
836.7886481657532
 20
971.5625609417177
 10
836.7983421789942
 20
971.5504785545657
 10
836.8089301135908
 20
971.5391964880183
 10
836.8203042231014
 20
971.5287453773363
 10
836.8324031846086
 20
971.5191125588823
 10
836.8451339688206
 20
971.5103162042195
 10
836.8583879364285
 20
971.5023775369578
 10
836.8720918731556
 20
971.4952903750246
 10
836.8862162223926
 20
971.4890314255683
 10
836.9007221775738
 20
971.4835913378909
 10
836.9154963958571
 20
971.4789875654954
 10
836.9304905315058
 20
971.4752099684185
 10
836.9456720317774
 20
971.4722480578773
 10
836.9610238300776
 20
971.4700944598012
  0
LWPOLYLINE
  5
F02
330
1F
100
AcDbEntity
  8
SANINDUSA
100
AcDbPolyline
 90
       12
 70
   128
 43
0.0
 10
836.8187851923732
 20
971.7963660987807
 10
836.8076024741437
 20
971.7859015087254
 10
836.7972647358197
 20
971.7746934405816
 10
836.7878156987748
 20
971.762725406684
 10
836.7793469004897
 20
971.7500270447231
 10
836.7719765673916
 20
971.7366850650792
 10
836.7667640564954
 20
971.7251889297166
 10
836.7624189000846
 20
971.7133583490833
 10
836.7589795820423
 20
971.7012422641291
 10
836.7564484822334
 20
971.6887023799563
 10
836.7549174618785
 20
971.6760046982756
 10
836.7544044027498
 20
971.6632110276545
  0
LWPOLYLINE
  5
F03
330
1F
100
AcDbEntity
  8
SANINDUSA
100
AcDbPolyline
 90
       23
 70
   128
 43
0.0
 10
837.027784975422
 20
971.4700944598012
 10
837.0431323016221
 20
971.4722473183767
 10
837.0582664152722
 20
971.4751984044772
 10
837.0731719879461
 20
971.4789481027697
 10
837.0878309627672
 20
971.4835038555396
 10
837.1022212795331
 20
971.488880123697
 10
837.1164177602169
 20
971.4951472525633
 10
837.1302133813195
 20
971.5022621380832
 10
837.143487523447
 20
971.5101958199431
 10
837.1561673383736
 20
971.5189361030924
 10
837.1682164711186
 20
971.5284995357492
 10
837.177841793453
 20
971.5372103867977
 10
837.1868809781735
 20
971.546463134733
 10
837.1952794436747
 20
971.5562322410653
 10
837.2030201889444
 20
971.5665382475201
 10
837.2100353738705
 20
971.5773431218687
 10
837.2162671122154
 20
971.5886118853026
 10
837.221700816706
 20
971.6004005396186
 10
837.2261963962692
 20
971.6124726532738
 10
837.2297295427745
 20
971.6247718950233
 10
837.2323046788727
 20
971.63737660002
 10
837.2338746007514
 20
971.6502104606094
 10
837.2344044027498
 20
971.6632110276545
  0
LWPOLYLINE
  5
F04
330
1F
100
AcDbEntity
  8
SANINDUSA
100
AcDbPolyline
 90
       12
 70
   128
 43
0.0
 10
837.1700236131264
 20
971.7963660987807
 10
837.1577219226333
 20
971.8063262579597
 10
837.1447046767613
 20
971.8154396599842
 10
837.1310721544881
 20
971.8236804976559
 10
837.117036954328
 20
971.8309781686112
 10
837.1025802354813
 20
971.8373958200849
 10
837.0877986213306
 20
971.8429292099997
 10
837.0697469172908
 20
971.8484121552062
 10
837.0512487392083
 20
971.8526966812866
 10
837.032445172344
 20
971.8557614956667
 10
837.0134614429563
 20
971.8575992753542
 10
836.9944044027498
 20
971.8582110276544
  0
ARC
  5
F09
330
1F
100
AcDbEntity
  8
SANINDUSA
100
AcDbCircle
 10
836.9931544966799
 20
971.7373625045659
 30
0.0
 40
0.0381227812362964
100
AcDbArc
 50
138.9506927337993
 51
221.0493072662007
  0
ARC
  5
F10
330
1F
100
AcDbEntity
  8
SANINDUSA
100
AcDbCircle
 10
836.9956543088195
 20
971.7373625045659
 30
0.0
 40
0.0381227812363065
100
AcDbArc
 50
318.9506927337993
 51
41.04930726620071
  0
ARC
  5
F19
330
1F
100
AcDbEntity
  8
SANINDUSA
100
AcDbCircle
 10
836.9944131490559
 20
971.7382486464861
 30
0.0
 40
0.0396676550833235
100
AcDbArc
 50
269.9873668765992
 51
319.118355548052
  0
LWPOLYLINE
  5
F1A
330
1F
100
AcDbEntity
  8
SANINDUSA
100
AcDbPolyline
 90
       12
 70
   128
 43
0.0
 10
836.9944044027498
 20
971.5119706897096
 10
836.9980313709673
 20
971.5117154052073
 10
837.0012491383326
 20
971.5109865352012
 10
837.0036987695071
 20
971.5098847162945
 10
837.0051024664547
 20
971.5085545129475
 10
837.0052984650003
 20
971.5071608075332
 10
837.004266269003
 20
971.5058614351439
 10
837.0021238165163
 20
971.5047893638443
 10
836.9991113968659
 20
971.5040461306955
 10
836.9955679346956
 20
971.5036989822138
 10
836.9944044627498
 20
971.5036775694489
 10
836.9944044027498
 20
971.5036775694489
  0
ARC
  5
F1B
330
1F
100
AcDbEntity
  8
SANINDUSA
100
AcDbCircle
 10
836.9943945972408
 20
971.7382463279491
 30
0.0
 40
0.0396653367939402
100
AcDbArc
 50
220.8801137132832
 51
270.0141638608
  0
LWPOLYLINE
  5
F1C
330
1F
100
AcDbEntity
  8
SANINDUSA
100
AcDbPolyline
 90
       12
 70
   128
 43
0.0
 10
836.9944044027498
 20
971.5036775694489
 10
836.9944043427498
 20
971.5036775694489
 10
836.9907751153434
 20
971.5038917720304
 10
836.9875547603834
 20
971.5045157732898
 10
836.9851060191326
 20
971.5054941612464
 10
836.9837053883324
 20
971.5067353227775
 10
836.9835103458568
 20
971.5081141719776
 10
836.9845417919778
 20
971.5094803328547
 10
836.9866853503422
 20
971.5106716407248
 10
836.9897021452185
 20
971.5115333839692
 10
836.9932490130961
 20
971.5119453790636
 10
836.9944044027498
 20
971.5119706897096
  0
LWPOLYLINE
  5
F1D
330
1F
100
AcDbEntity
  8
SANINDUSA
100
AcDbPolyline
 90
       17
 70
   128
 43
0.0
 10
836.8307376150067
 20
971.782640954221
 10
836.8386283445108
 20
971.7891674502908
 10
836.8468544891122
 20
971.7953087842193
 10
836.8553315076258
 20
971.8010243929725
 10
836.8640839759704
 20
971.8063516676686
 10
836.8730360112682
 20
971.8112624232809
 10
836.8822118758609
 20
971.8157858429966
 10
836.891544076551
 20
971.8199021073441
 10
836.9010556363937
 20
971.823633901682
 10
836.9106851700731
 20
971.8269682999345
 10
836.9204547629804
 20
971.8299230599923
 10
836.9303100048746
 20
971.8324897755346
 10
836.9402710778137
 20
971.834680131054
 10
836.950288209686
 20
971.8364888638401
 10
836.9603799757367
 20
971.8379245153156
 10
836.977328014351
 20
971.8394878809398
 10
836.9944044027498
 20
971.8400110276546
  0
LWPOLYLINE
  5
F1E
330
1F
100
AcDbEntity
  8
SANINDUSA
100
AcDbPolyline
 90
       18
 70
   128
 43
0.0
 10
836.9944044027498
 20
971.846296584518
 10
836.9797868992574
 20
971.8459216619899
 10
836.97439981983
 20
971.8455938476255
 10
836.9636479959558
 20
971.8446313152712
 10
836.9529422282576
 20
971.8432589592666
 10
836.9422993632305
 20
971.8414754164919
 10
836.9317364701476
 20
971.8392789981514
 10
836.9212709716423
 20
971.8366682956892
 10
836.9109209784086
 20
971.8336423783505
 10
836.9007070676396
 20
971.8301994940166
 10
836.8906503503886
 20
971.8263361067322
 10
836.8807657273052
 20
971.8220458939667
 10
836.8710784363717
 20
971.8173273747645
 10
836.8616288188283
 20
971.8121883554388
 10
836.8524300001299
 20
971.806624671241
 10
836.8435099197791
 20
971.800637788703
 10
836.8348919258316
 20
971.7942231772289
 10
836.8266097231321
 20
971.7873810738137
  0
LWPOLYLINE
  5
F1F
330
1F
100
AcDbEntity
  8
SANINDUSA
100
AcDbPolyline
 90
       18
 70
   128
 43
0.0
 10
837.1621990823674
 20
971.7873810738137
 10
837.1509190830836
 20
971.7965315498888
 10
837.142195528853
 20
971.802794042219
 10
837.1377213646834
 20
971.8057659733297
 10
837.1285618317502
 20
971.8113930605115
 10
837.1191465091881
 20
971.8165937791972
 10
837.1095008142003
 20
971.8213680850658
 10
837.0996493736672
 20
971.8257176867851
 10
837.0896158697956
 20
971.8296455351943
 10
837.0794233798401
 20
971.833153645899
 10
837.0690923374525
 20
971.8362432195517
 10
837.0586406255505
 20
971.8389162871927
 10
837.0480746310583
 20
971.8411770330662
 10
837.0374409063325
 20
971.8430215083291
 10
837.0267420258278
 20
971.8444547380277
 10
837.0159947070712
 20
971.8454778371425
 10
837.0052150936215
 20
971.8460916385904
 10
836.9944044027498
 20
971.846296584518
  0
LWPOLYLINE
  5
F20
330
1F
100
AcDbEntity
  8
SANINDUSA
100
AcDbPolyline
 90
       14
 70
   128
 43
0.0
 10
836.8266097231321
 20
971.7873810738137
 10
836.8174310797398
 20
971.7788752485413
 10
836.8087768077858
 20
971.7697672797527
 10
836.8019006949335
 20
971.7615788551414
 10
836.7955235817325
 20
971.7530138981077
 10
836.789654899548
 20
971.744046509049
 10
836.7843860118895
 20
971.7347776377136
 10
836.7797272873252
 20
971.7251970200889
 10
836.7757139621517
 20
971.7153388539358
 10
836.7723805951259
 20
971.7052420116086
 10
836.7697412726824
 20
971.6948894668179
 10
836.7678498856095
 20
971.6844366340767
 10
836.7667059520146
 20
971.6738784955877
 10
836.7663188458864
 20
971.6632110276545
  0
LWPOLYLINE
  5
F21
330
1F
100
AcDbEntity
  8
SANINDUSA
100
AcDbPolyline
 90
       13
 70
   128
 43
0.0
 10
836.7726044027499
 20
971.6632110276545
 10
836.7729838597869
 20
971.6735592455275
 10
836.7741239980913
 20
971.6839074634005
 10
836.7760002889589
 20
971.6940833570447
 10
836.7786127727114
 20
971.70415083662
 10
836.7819017720034
 20
971.7139459956417
 10
836.7858731982572
 20
971.7235380619372
 10
836.7920806614572
 20
971.7357634178549
 10
836.7993591359214
 20
971.7475023974849
 10
836.8062462346657
 20
971.7569371946508
 10
836.8137795996718
 20
971.7659331762128
 10
836.821981567312
 20
971.7745348178024
 10
836.8307376150067
 20
971.782640954221
  0
LWPOLYLINE
  5
F22
330
1F
100
AcDbEntity
  8
SANINDUSA
100
AcDbPolyline
 90
       28
 70
   128
 43
0.0
 10
836.7663188458864
 20
971.6632110276545
 10
836.7667882626678
 20
971.6514796660383
 10
836.768192806028
 20
971.639748304422
 10
836.7702399057721
 20
971.6293225474657
 10
836.7730174675177
 20
971.6190577857142
 10
836.776513134365
 20
971.6089606028056
 10
836.7806666112729
 20
971.599158370736
 10
836.7854624591602
 20
971.5896378205613
 10
836.79087884936
 20
971.5804048889612
 10
836.7968405733206
 20
971.5715491745996
 10
836.803332453843
 20
971.5630562354057
 10
836.8103316021819
 20
971.5549276525134
 10
836.8177621849882
 20
971.5472207145309
 10
836.8256108509818
 20
971.5399188828783
 10
836.8338547751125
 20
971.5330196640334
 10
836.8424252508102
 20
971.5265559182515
 10
836.8513084775097
 20
971.5205143323714
 10
836.8604744059171
 20
971.5148968976595
 10
836.8698976064017
 20
971.5097040203769
 10
836.8795648966564
 20
971.504931047411
 10
836.8894206074095
 20
971.5005923477919
 10
836.899458174993
 20
971.4966770663941
 10
836.9096554455424
 20
971.4931821661519
 10
836.9199924206442
 20
971.4901042367255
 10
836.9304614006296
 20
971.4874388887194
 10
836.9410149757813
 20
971.4851918293303
 10
836.9516512173047
 20
971.4833573815623
 10
836.9623664181068
 20
971.4819330159903
  0
ARC
  5
F23
330
1F
100
AcDbEntity
  8
SANINDUSA
100
AcDbCircle
 10
836.994391780956
 20
971.7647354839984
 30
0.0
 40
0.2846100134871996
100
AcDbArc
 50
263.5391854404556
 51
270.0025409328207
  0
ARC
  5
F24
330
1F
100
AcDbEntity
  8
SANINDUSA
100
AcDbCircle
 10
836.9943713532675
 20
971.7643734091124
 30
0.0
 40
0.2779623834226885
100
AcDbArc
 50
263.5351827052803
 51
270.0068124196052
  0
LWPOLYLINE
  5
F28
330
1F
100
AcDbEntity
  8
SANINDUSA
100
AcDbPolyline
 90
        4
 70
   128
 43
0.0
 10
836.9944044028066
 20
971.7759274993499
 10
836.9944044628066
 20
971.7759274993499
 10
836.9978115076118
 20
971.7758134442092
 10
836.9978115674751
 20
971.7758134402011
  0
ARC
  5
F29
330
1F
100
AcDbEntity
  8
SANINDUSA
100
AcDbCircle
 10
836.9944059406845
 20
971.7249352677541
 30
0.0
 40
0.0509922316189852
100
AcDbArc
 50
90.00172805265963
 51
93.83293728430052
  0
ARC
  5
F2F
330
1F
100
AcDbEntity
  8
SANINDUSA
100
AcDbCircle
 10
836.9945336046235
 20
971.7362067828446
 30
0.0
 40
0.0397421638312985
100
AcDbArc
 50
41.26954973724387
 51
85.29805921840488
  0
ARC
  5
F32
330
1F
100
AcDbEntity
  8
SANINDUSA
100
AcDbCircle
 10
836.9942432074381
 20
971.7362703499421
 30
0.0
 40
0.0396761970529067
100
AcDbArc
 50
94.66342043840951
 51
138.7689712507548
  0
CIRCLE
  5
F36
330
1F
100
AcDbEntity
  8
SANINDUSA
100
AcDbCircle
 10
836.9944044027498
 20
971.7385843168521
 30
0.0
 40
0.0225
  0
LINE
  5
F38
330
1F
100
AcDbEntity
  8
SANINDUSA
100
AcDbLine
 10
838.1543214501437
 20
971.5694839977633
 30
0.0
 11
838.1551189871771
 21
971.5466455252729
 31
0.0
  0
LINE
  5
F39
330
1F
100
AcDbEntity
  8
SANINDUSA
100
AcDbLine
 10
838.225253795386
 20
971.5466455252729
 30
0.0
 11
838.2253700258706
 21
971.5499739281215
 31
0.0
  0
ARC
  5
F3A
330
1F
100
AcDbEntity
  8
SANINDUSA
100
AcDbCircle
 10
838.1571177688311
 20
971.5467153242663
 30
0.0
 40
0.002
100
AcDbArc
 50
181.9999999972438
 51
270.0
  0
ARC
  5
F3B
330
1F
100
AcDbEntity
  8
SANINDUSA
100
AcDbCircle
 10
838.223255013732
 20
971.5467153242663
 30
0.0
 40
0.002
100
AcDbArc
 50
270.0
 51
358.0000000027562
  0
ARC
  5
F3C
330
1F
100
AcDbEntity
  8
SANINDUSA
100
AcDbCircle
 10
838.2265365380066
 20
971.5498701736436
 30
0.0
 40
0.0011711172250959
100
AcDbArc
 50
102.23552324007
 51
174.917248434786
  0
LINE
  5
F3D
330
1F
100
AcDbEntity
  8
SANINDUSA
100
AcDbLine
 10
838.2655563913877
 20
971.7192153242663
 30
0.0
 11
838.1384343508372
 21
971.7192153242663
 31
0.0
  0
LINE
  5
F3F
330
1F
100
AcDbEntity
  8
SANINDUSA
100
AcDbLine
 10
838.1324013202615
 20
971.7292153242663
 30
0.0
 11
838.2655563913877
 21
971.7292153242663
 31
0.0
  0
LINE
  5
F40
330
1F
100
AcDbEntity
  8
SANINDUSA
100
AcDbLine
 10
838.4507239138322
 20
971.7192153242663
 30
0.0
 11
838.2655563913877
 21
971.7192153242663
 31
0.0
  0
LWPOLYLINE
  5
F42
330
1F
100
AcDbEntity
  8
SANINDUSA
100
AcDbPolyline
 90
        9
 70
   128
 43
0.0
 10
838.4507239138322
 20
971.7192153242663
 10
838.4522746956607
 20
971.7193690420231
 10
838.4537658818132
 20
971.7198242880062
 10
838.4551401668423
 20
971.7205635673678
 10
838.4563447377447
 20
971.7215584700168
 10
838.4573333035364
 20
971.7227707624022
 10
838.4580678741883
 20
971.7241538568075
 10
838.4585202205624
 20
971.7256546016901
 10
838.458672959241
 20
971.7272153242664
  0
LINE
  5
F43
330
1F
100
AcDbEntity
  8
SANINDUSA
100
AcDbLine
 10
838.2655563913877
 20
971.7292153242663
 30
0.0
 11
838.458672959241
 21
971.7292153242663
 31
0.0
  0
LINE
  5
F44
330
1F
100
AcDbEntity
  8
SANINDUSA
100
AcDbLine
 10
838.458672959241
 20
971.7272153242664
 30
0.0
 11
838.458672959241
 21
971.7292153242663
 31
0.0
  0
ARC
  5
F48
330
1F
100
AcDbEntity
  8
SANINDUSA
100
AcDbCircle
 10
838.2092670506587
 20
970.8807790891912
 30
0.0
 40
0.7008087049755996
100
AcDbArc
 50
88.89457401721868
 51
94.23268933061709
  0
ARC
  5
F4D
330
1F
100
AcDbEntity
  8
SANINDUSA
100
AcDbCircle
 10
838.2779150247383
 20
971.754437830117
 30
0.0
 40
0.1629679545190986
100
AcDbArc
 50
285.5610198402309
 51
346.5492053619144
  0
ARC
  5
F4E
330
1F
100
AcDbEntity
  8
SANINDUSA
100
AcDbCircle
 10
838.4398039749521
 20
971.7157314152158
 30
0.0
 40
0.0034839159358534
100
AcDbArc
 50
90.11391252703672
 51
166.744435365943
  0
LINE
  5
F50
330
1F
100
AcDbEntity
  8
SANINDUSA
100
AcDbLine
 10
838.0705563913876
 20
971.7272153242664
 30
0.0
 11
838.0705563913876
 21
971.7292153242663
 31
0.0
  0
LINE
  5
F51
330
1F
100
AcDbEntity
  8
SANINDUSA
100
AcDbLine
 10
838.0705563913876
 20
971.7292153242663
 30
0.0
 11
838.1324013202615
 21
971.7292153242663
 31
0.0
  0
ARC
  5
F52
330
1F
100
AcDbEntity
  8
SANINDUSA
100
AcDbCircle
 10
838.0785563913876
 20
971.7272153242664
 30
0.0
 40
0.0080000000000001
100
AcDbArc
 50
180.0
 51
270.0
  0
LINE
  5
F53
330
1F
100
AcDbEntity
  8
SANINDUSA
100
AcDbLine
 10
838.1384343508372
 20
971.7192153242663
 30
0.0
 11
838.0785563913876
 21
971.7192153242663
 31
0.0
  0
ARC
  5
F55
330
1F
100
AcDbEntity
  8
SANINDUSA
100
AcDbCircle
 10
838.0885040108443
 20
971.7152153242663
 30
0.0
 40
0.0039999999999035
100
AcDbArc
 50
8.872651746500944
 51
90.0
  0
ARC
  5
F57
330
1F
100
AcDbEntity
  8
SANINDUSA
100
AcDbCircle
 10
839.1504767806452
 20
971.8809847639512
 30
0.0
 40
1.070832857207408
100
AcDbArc
 50
188.8720295770591
 51
194.7661837233929
  0
LWPOLYLINE
  5
F59
330
1F
100
AcDbEntity
  8
SANINDUSA
100
AcDbPolyline
 90
       26
 70
   128
 43
0.0
 10
838.4574784697074
 20
971.7210149128971
 10
838.4571127369326
 20
971.7192153242663
 10
838.4537559479879
 20
971.7052712193348
 10
838.4493841824683
 20
971.6915333894332
 10
838.4431434740053
 20
971.6761658710806
 10
838.4395266881659
 20
971.6686446316346
 10
838.4355915533062
 20
971.6612683631616
 10
838.431263106213
 20
971.6539205509127
 10
838.4266164601688
 20
971.646751147621
 10
838.4216397418205
 20
971.639748734449
 10
838.4163571706752
 20
971.6329539600147
 10
838.4068361455739
 20
971.622064090592
 10
838.3964983039861
 20
971.6118378969518
 10
838.3852600000491
 20
971.602241077961
 10
838.3732769124108
 20
971.5934539363539
 10
838.3616770040868
 20
971.5861607465814
 10
838.3495459050145
 20
971.579651430777
 10
838.3366909833114
 20
971.5738697013748
 10
838.3233927731287
 20
971.5689872431902
 10
838.309590028221
 20
971.5650097022779
 10
838.2955559687554
 20
971.561738615172
 10
838.2811618317814
 20
971.5587705951314
 10
838.2666863073927
 20
971.5561730673284
 10
838.2521193856032
 20
971.5539457749121
 10
838.2374899568938
 20
971.5520946755686
 10
838.2262883422532
 20
971.5510146885728
  0
LWPOLYLINE
  5
F5A
330
1F
100
AcDbEntity
  8
SANINDUSA
100
AcDbPolyline
 90
        2
 70
   128
 43
0.0
 10
838.2262883422532
 20
971.5510146885728
 10
838.218413394447
 20
971.550255437206
  0
LWPOLYLINE
  5
F5B
330
1F
100
AcDbEntity
  8
SANINDUSA
100
AcDbPolyline
 90
        7
 70
   128
 43
0.0
 10
838.2127561010539
 20
971.5548463209959
 10
838.2128477458318
 20
971.5537653217088
 10
838.2128685623026
 20
971.5536882404217
 10
838.2133656149775
 20
971.55263579348
 10
838.2143211223594
 20
971.5516061208925
 10
838.2164537865303
 20
971.5504830469193
 10
838.218413394447
 20
971.550255437206
  0
ARC
  5
F63
330
1F
100
AcDbEntity
  8
SANINDUSA
100
AcDbCircle
 10
838.2253916881399
 20
971.574307855424
 30
0.0
 40
0.0072659822021269
100
AcDbArc
 50
100.1253621905206
 51
133.0651549514247
  0
ARC
  5
F64
330
1F
100
AcDbEntity
  8
SANINDUSA
100
AcDbCircle
 10
838.1448985789882
 20
972.3702977557003
 30
0.0
 40
0.792804562737882
100
AcDbArc
 50
275.7344692770729
 51
282.8808167635533
  0
LINE
  5
F6E
330
1F
100
AcDbEntity
  8
SANINDUSA
100
AcDbLine
 10
838.223255013732
 20
971.5447153242664
 30
0.0
 11
838.1571177689053
 21
971.5447153242664
 31
0.0
  0
ARC
  5
F70
330
1F
100
AcDbEntity
  8
SANINDUSA
100
AcDbCircle
 10
838.1462183502259
 20
971.6469998152835
 30
0.0
 40
0.0680416247857063
100
AcDbArc
 50
269.9842855543149
 51
276.2214871039989
  0
ARC
  5
F71
330
1F
100
AcDbEntity
  8
SANINDUSA
100
AcDbCircle
 10
838.1536882751639
 20
971.6182509540983
 30
0.0
 40
0.0399999999999821
100
AcDbArc
 50
194.7658970349505
 51
259.209720274102
  0
LINE
  5
F72
330
1F
100
AcDbEntity
  8
SANINDUSA
100
AcDbLine
 10
838.4605563913876
 20
971.7272153242664
 30
0.0
 11
838.4605563913876
 21
971.7292153242663
 31
0.0
  0
LINE
  5
F74
330
1F
100
AcDbEntity
  8
SANINDUSA
100
AcDbLine
 10
838.458672959241
 20
971.7292153242663
 30
0.0
 11
838.4605563913876
 21
971.7292153242663
 31
0.0
  0
ARC
  5
F76
330
1F
100
AcDbEntity
  8
SANINDUSA
100
AcDbCircle
 10
838.4529178629115
 20
971.7271429808233
 30
0.0
 40
0.0076388710457837
100
AcDbArc
 50
306.6572164973109
 51
0.5426241503660279
  0
LWPOLYLINE
  5
F78
330
1F
100
AcDbEntity
  8
SANINDUSA
100
AcDbPolyline
 90
        4
 70
   128
 43
0.0
 10
838.1535891279723
 20
971.579358670526
 10
838.1568667082738
 20
971.5796257251893
 10
838.1575114943469
 20
971.5796754811213
 10
838.1575115363659
 20
971.5796754843346
  0
LWPOLYLINE
  5
F80
330
1F
100
AcDbEntity
  8
SANINDUSA
100
AcDbPolyline
 90
        6
 70
   128
 43
0.0
 10
838.2198416650316
 20
971.5791255274375
 10
838.2186115783776
 20
971.5784964062327
 10
838.2170194257108
 20
971.5774273381233
 10
838.2156197253122
 20
971.5761208461049
 10
838.2143008315543
 20
971.5741639870342
 10
838.2137011738716
 20
971.5718606528456
  0
LINE
  5
F85
330
1F
100
AcDbEntity
  8
SANINDUSA
100
AcDbLine
 10
838.2137011738716
 20
971.5718606528456
 30
0.0
 11
838.2127561010539
 21
971.5548463209959
 31
0.0
  0
ARC
  5
F86
330
1F
100
AcDbEntity
  8
SANINDUSA
100
AcDbCircle
 10
838.1443275418735
 20
971.5691350027965
 30
0.0
 40
0.0100000000000201
100
AcDbArc
 50
1.999999997243794
 51
79.20972028689921
  0
LWPOLYLINE
  5
F88
330
1F
100
AcDbEntity
  8
SANINDUSA
100
AcDbPolyline
 90
        3
 70
   128
 43
0.0
 10
838.7055193623382
 20
971.5859273952171
 10
838.7026498244315
 20
971.5876293073542
 10
838.6993742713986
 20
971.5882629516139
  0
LINE
  5
F89
330
1F
100
AcDbEntity
  8
SANINDUSA
100
AcDbLine
 10
838.7055193623382
 20
971.5859273952171
 30
0.0
 11
838.7124313919448
 21
971.5801275137234
 31
0.0
  0
ARC
  5
F8A
330
1F
100
AcDbEntity
  8
SANINDUSA
100
AcDbCircle
 10
838.7092174538963
 20
971.5762972915079
 30
0.0
 40
0.005
100
AcDbArc
 50
0.0
 51
50.00000000237776
  0
LINE
  5
F8B
330
1F
100
AcDbEntity
  8
SANINDUSA
100
AcDbLine
 10
838.7142174538963
 20
971.5762972915079
 30
0.0
 11
838.7142174538963
 21
971.5457153242663
 31
0.0
  0
ARC
  5
F8C
330
1F
100
AcDbEntity
  8
SANINDUSA
100
AcDbCircle
 10
838.7132174538963
 20
971.5457153242663
 30
0.0
 40
0.0009999999999999
100
AcDbArc
 50
270.0
 51
0.0
  0
LINE
  5
F8D
330
1F
100
AcDbEntity
  8
SANINDUSA
100
AcDbLine
 10
838.7132174538963
 20
971.5447153242664
 30
0.0
 11
838.7036521205375
 21
971.5447153242664
 31
0.0
  0
ARC
  5
F8E
330
1F
100
AcDbEntity
  8
SANINDUSA
100
AcDbCircle
 10
838.7036521205375
 20
971.5467153242663
 30
0.0
 40
0.0020000000000003
100
AcDbArc
 50
181.9999999972438
 51
270.0
  0
LINE
  5
F8F
330
1F
100
AcDbEntity
  8
SANINDUSA
100
AcDbLine
 10
838.7016533388834
 20
971.5466455252729
 30
0.0
 11
838.70085580185
 21
971.5694839977635
 31
0.0
  0
ARC
  5
F90
330
1F
100
AcDbEntity
  8
SANINDUSA
100
AcDbCircle
 10
838.6908618935798
 20
971.5691350027965
 30
0.0
 40
0.0100000000000156
100
AcDbArc
 50
1.999999997243794
 51
79.20972028689921
  0
ARC
  5
F91
330
1F
100
AcDbEntity
  8
SANINDUSA
100
AcDbCircle
 10
838.7002226268702
 20
971.6182509540983
 30
0.0
 40
0.040000000000013
100
AcDbArc
 50
194.7658970349505
 51
259.209720274102
  0
ARC
  5
F92
330
1F
100
AcDbEntity
  8
SANINDUSA
100
AcDbCircle
 10
839.6970111323515
 20
971.8809847639512
 30
0.0
 40
1.070832857207416
100
AcDbArc
 50
188.8720295770591
 51
194.7661837233929
  0
ARC
  5
F93
330
1F
100
AcDbEntity
  8
SANINDUSA
100
AcDbCircle
 10
838.6350383625506
 20
971.7152153242663
 30
0.0
 40
0.0039999999999344
100
AcDbArc
 50
8.872651752936771
 51
90.0
  0
LINE
  5
F94
330
1F
100
AcDbEntity
  8
SANINDUSA
100
AcDbLine
 10
838.6250907430939
 20
971.7192153242663
 30
0.0
 11
838.6350383625506
 21
971.7192153242663
 31
0.0
  0
ARC
  5
F95
330
1F
100
AcDbEntity
  8
SANINDUSA
100
AcDbCircle
 10
838.6250907430939
 20
971.7272153242664
 30
0.0
 40
0.0080000000000001
100
AcDbArc
 50
180.0
 51
270.0
  0
LINE
  5
F96
330
1F
100
AcDbEntity
  8
SANINDUSA
100
AcDbLine
 10
838.6170907430939
 20
971.7272153242664
 30
0.0
 11
838.6170907430939
 21
971.7292153242663
 31
0.0
  0
LINE
  5
F97
330
1F
100
AcDbEntity
  8
SANINDUSA
100
AcDbLine
 10
838.6170907430939
 20
971.7292153242663
 30
0.0
 11
838.6236054617198
 21
971.7292153242663
 31
0.0
  0
ARC
  5
F98
330
1F
100
AcDbEntity
  8
SANINDUSA
100
AcDbCircle
 10
838.6236054617198
 20
971.7222153242664
 30
0.0
 40
0.0070000000000002
100
AcDbArc
 50
39.5211963560081
 51
90.0
  0
ARC
  5
F99
330
1F
100
AcDbEntity
  8
SANINDUSA
100
AcDbCircle
 10
838.6320907430938
 20
971.7292153242663
 30
0.0
 40
0.0040000000000001
100
AcDbArc
 50
219.5211963560081
 51
323.1301023567615
  0
ARC
  5
F9A
330
1F
100
AcDbEntity
  8
SANINDUSA
100
AcDbCircle
 10
838.6400907430939
 20
971.7232153242663
 30
0.0
 40
0.0059999999999999
100
AcDbArc
 50
90.0
 51
143.1301023567615
  0
LINE
  5
F9B
330
1F
100
AcDbEntity
  8
SANINDUSA
100
AcDbLine
 10
838.6400907430939
 20
971.7292153242663
 30
0.0
 11
838.647090743094
 21
971.7292153242663
 31
0.0
  0
ARC
  5
F9C
330
1F
100
AcDbEntity
  8
SANINDUSA
100
AcDbCircle
 10
839.6970666330329
 20
971.8809978880628
 30
0.0
 40
1.06088986993261
100
AcDbArc
 50
188.2255903940386
 51
194.7661078399474
  0
ARC
  5
F9D
330
1F
100
AcDbEntity
  8
SANINDUSA
100
AcDbCircle
 10
838.7002226268702
 20
971.6182509540981
 30
0.0
 40
0.0299999999999549
100
AcDbArc
 50
194.7658970349505
 51
268.3795443752164
  0
LINE
  5
F9F
330
1F
100
AcDbEntity
  8
SANINDUSA
100
AcDbLine
 10
838.7719043927688
 20
971.5499743659099
 30
0.0
 11
838.7717881470923
 21
971.5466455252729
 31
0.0
  0
LINE
  5
FA6
330
1F
100
AcDbEntity
  8
SANINDUSA
100
AcDbLine
 10
838.7610035158479
 20
971.5801275137234
 30
0.0
 11
838.7712569619466
 21
971.5887311765634
 31
0.0
  0
LWPOLYLINE
  5
FA8
330
1F
100
AcDbEntity
  8
SANINDUSA
100
AcDbPolyline
 90
       16
 70
   128
 43
0.0
 10
838.781637593728
 20
971.5814658529355
 10
838.8025421831589
 20
971.5839649713615
 10
838.823346178863
 20
971.587142799323
 10
838.8440518163134
 20
971.5909998688088
 10
838.8562006890298
 20
971.5935902740527
 10
838.8685857102386
 20
971.5966366003483
 10
838.8808163353536
 20
971.6006143629549
 10
838.8925988730459
 20
971.6054796190176
 10
838.9053886435883
 20
971.6120310138537
 10
838.9174929847367
 20
971.6196160012016
 10
838.9288559707575
 20
971.6281755692435
 10
838.9394222555345
 20
971.6376510996704
 10
838.9491367360658
 20
971.6479843468711
 10
838.9579442630473
 20
971.6591172995332
 10
838.9657894291865
 20
971.6709919465566
 10
838.9726164598839
 20
971.6835499738659
  0
LWPOLYLINE
  5
FAA
330
1F
100
AcDbEntity
  8
SANINDUSA
100
AcDbPolyline
 90
        3
 70
   128
 43
0.0
 10
838.9809932099062
 20
971.7040414328049
 10
838.9833033461075
 20
971.7115754345465
 10
838.9852545645124
 20
971.7192153242663
  0
ARC
  5
FAB
330
1F
100
AcDbEntity
  8
SANINDUSA
100
AcDbCircle
 10
838.9717181394429
 20
971.6839893147183
 30
0.0
 40
0.0009999999996647
100
AcDbArc
 50
333.9381675027145
 51
68.86046157168704
  0
ARC
  5
FAD
330
1F
100
AcDbEntity
  8
SANINDUSA
100
AcDbCircle
 10
838.9800443720959
 20
971.7043571966563
 30
0.0
 40
0.0010000000000137
100
AcDbArc
 50
248.8604615511116
 51
341.5930670498025
  0
ARC
  5
FAF
330
1F
100
AcDbEntity
  8
SANINDUSA
100
AcDbCircle
 10
838.9642274629244
 20
971.6868856666039
 30
0.0
 40
0.001
100
AcDbArc
 50
68.86046154503617
 51
153.686484008032
  0
ARC
  5
FB0
330
1F
100
AcDbEntity
  8
SANINDUSA
100
AcDbCircle
 10
838.6888792311426
 20
971.8116516233322
 30
0.0
 40
0.3012971045320227
100
AcDbArc
 50
335.6301689079385
 51
339.7888451756642
  0
ARC
  5
FB1
330
1F
100
AcDbEntity
  8
SANINDUSA
100
AcDbCircle
 10
838.9725738048319
 20
971.7072457730795
 30
0.0
 40
0.0010000000000001
100
AcDbArc
 50
161.7325184402488
 51
248.8604615450362
  0
LINE
  5
FB2
330
1F
100
AcDbEntity
  8
SANINDUSA
100
AcDbLine
 10
838.9796837315646
 20
971.7034244917689
 30
0.0
 11
838.9722131643006
 21
971.7063130681921
 31
0.0
  0
LINE
  5
FB3
330
1F
100
AcDbEntity
  8
SANINDUSA
100
AcDbLine
 10
838.9645881034557
 20
971.6878183714914
 30
0.0
 11
838.9720787799738
 21
971.6849220196055
 31
0.0
  0
LINE
  5
FB6
330
1F
100
AcDbEntity
  8
SANINDUSA
100
AcDbLine
 10
838.7015595366268
 20
971.7292153242663
 30
0.0
 11
838.647090743094
 21
971.7292153242663
 31
0.0
  0
LWPOLYLINE
  5
FB8
330
1F
100
AcDbEntity
  8
SANINDUSA
100
AcDbPolyline
 90
        3
 70
   128
 43
0.0
 10
838.9716242012996
 20
971.7075592266349
 10
838.9747314777972
 20
971.7182372583414
 10
838.9770907430939
 20
971.7292153242663
  0
LINE
  5
FB9
330
1F
100
AcDbEntity
  8
SANINDUSA
100
AcDbLine
 10
838.9770907430939
 20
971.7292153242663
 30
0.0
 11
838.9840907430938
 21
971.7292153242663
 31
0.0
  0
ARC
  5
FBA
330
1F
100
AcDbEntity
  8
SANINDUSA
100
AcDbCircle
 10
838.9840907430938
 20
971.7232153242663
 30
0.0
 40
0.0060000000000001
100
AcDbArc
 50
36.86989764323851
 51
90.0
  0
ARC
  5
FBB
330
1F
100
AcDbEntity
  8
SANINDUSA
100
AcDbCircle
 10
838.9920907430939
 20
971.7292153242663
 30
0.0
 40
0.004
100
AcDbArc
 50
216.8698976432385
 51
320.4788036439918
  0
ARC
  5
FBC
330
1F
100
AcDbEntity
  8
SANINDUSA
100
AcDbCircle
 10
839.0005760244681
 20
971.7222153242664
 30
0.0
 40
0.0070000000000002
100
AcDbArc
 50
90.0
 51
140.4788036439919
  0
LINE
  5
FBD
330
1F
100
AcDbEntity
  8
SANINDUSA
100
AcDbLine
 10
839.0005760244681
 20
971.7292153242663
 30
0.0
 11
839.0070907430938
 21
971.7292153242663
 31
0.0
  0
LINE
  5
FBE
330
1F
100
AcDbEntity
  8
SANINDUSA
100
AcDbLine
 10
839.0070907430938
 20
971.7272153242664
 30
0.0
 11
839.0070907430938
 21
971.7292153242663
 31
0.0
  0
ARC
  5
FBF
330
1F
100
AcDbEntity
  8
SANINDUSA
100
AcDbCircle
 10
838.9990907430938
 20
971.7272153242664
 30
0.0
 40
0.0080000000000001
100
AcDbArc
 50
314.7303141810317
 51
0.0
  0
LWPOLYLINE
  5
FC0
330
1F
100
AcDbEntity
  8
SANINDUSA
100
AcDbPolyline
 90
        3
 70
   128
 43
0.0
 10
839.0047209084995
 20
971.7215319065003
 10
839.0041047190669
 20
971.7207089547196
 10
839.003754221402
 20
971.7197424711777
  0
ARC
  5
FC1
330
1F
100
AcDbEntity
  8
SANINDUSA
100
AcDbCircle
 10
838.7729037835958
 20
971.5499394664131
 30
0.0
 40
0.0009999999999999
100
AcDbArc
 50
95.33713572914164
 51
178.0000000027562
  0
ARC
  5
FC2
330
1F
100
AcDbEntity
  8
SANINDUSA
100
AcDbCircle
 10
838.7697893654381
 20
971.5467153242663
 30
0.0
 40
0.0019999999999999
100
AcDbArc
 50
270.0
 51
358.0000000027562
  0
LINE
  5
FC3
330
1F
100
AcDbEntity
  8
SANINDUSA
100
AcDbLine
 10
838.7697893654381
 20
971.5447153242664
 30
0.0
 11
838.7602174538963
 21
971.5447153242664
 31
0.0
  0
ARC
  5
FC4
330
1F
100
AcDbEntity
  8
SANINDUSA
100
AcDbCircle
 10
838.7602174538963
 20
971.5457153242663
 30
0.0
 40
0.0009999999999999
100
AcDbArc
 50
180.0
 51
270.0
  0
LINE
  5
FC5
330
1F
100
AcDbEntity
  8
SANINDUSA
100
AcDbLine
 10
838.7592174538964
 20
971.5457153242663
 30
0.0
 11
838.7592174538964
 21
971.5558911649177
 31
0.0
  0
ARC
  5
FC6
330
1F
100
AcDbEntity
  8
SANINDUSA
100
AcDbCircle
 10
838.7602174538963
 20
971.5558911649177
 30
0.0
 40
0.0010000000000002
100
AcDbArc
 50
90.0
 51
180.0
  0
LINE
  5
FC7
330
1F
100
AcDbEntity
  8
SANINDUSA
100
AcDbLine
 10
838.7721459327126
 20
971.5568911649176
 30
0.0
 11
838.7602174538963
 21
971.5568911649176
 31
0.0
  0
LWPOLYLINE
  5
FC8
330
1F
100
AcDbEntity
  8
SANINDUSA
100
AcDbPolyline
 90
       21
 70
   128
 43
0.0
 10
838.7721459327126
 20
971.5568911649176
 10
838.7880787483407
 20
971.5586029592726
 10
838.8039549205156
 20
971.5607671772986
 10
838.8197648303059
 20
971.5633815748159
 10
838.8354990266062
 20
971.5664443079374
 10
838.8511475240909
 20
971.5699553341336
 10
838.8665556608996
 20
971.5741762827887
 10
838.8805825905622
 20
971.5792336412262
 10
838.894072224361
 20
971.5853016512435
 10
838.9069798272725
 20
971.5923350880833
 10
838.9192612073482
 20
971.6002877461889
 10
838.9308720671031
 20
971.6091136419867
 10
838.9417679279734
 20
971.6187669216864
 10
838.9519042938172
 20
971.6292017463374
 10
838.961236668493
 20
971.640372276988
 10
838.9697206101924
 20
971.652232653745
 10
838.9773122964557
 20
971.6647367779929
 10
838.9838577432637
 20
971.6775995285939
 10
838.9894551745642
 20
971.6909964328801
 10
838.9940644789737
 20
971.7048832917287
 10
838.997647088639
 20
971.7192153242663
  0
LINE
  5
FC9
330
1F
100
AcDbEntity
  8
SANINDUSA
100
AcDbLine
 10
838.9852545645124
 20
971.7192153242663
 30
0.0
 11
838.997647088639
 21
971.7192153242663
 31
0.0
  0
LWPOLYLINE
  5
FCA
330
1F
100
AcDbEntity
  8
SANINDUSA
100
AcDbPolyline
 90
       23
 70
   128
 43
0.0
 10
838.7728107676581
 20
971.550935131033
 10
838.7895493019627
 20
971.5526561484587
 10
838.8062778993132
 20
971.554774682788
 10
838.8229336634957
 20
971.5574106632388
 10
838.8394536982959
 20
971.5606840190281
 10
838.8557751075
 20
971.5647146793731
 10
838.8718349948938
 20
971.5696225734916
 10
838.8844282476592
 20
971.5743745339386
 10
838.8967130652211
 20
971.5799867605561
 10
838.9086089239301
 20
971.5864153481307
 10
838.9200353001363
 20
971.5936163914491
 10
838.9309116701902
 20
971.6015459852982
 10
838.9412188204428
 20
971.6102003682395
 10
838.9509521515757
 20
971.6195616757774
 10
838.9600501439517
 20
971.6295625638927
 10
838.9684512779336
 20
971.6401356885675
 10
838.9760940338845
 20
971.6512137057826
 10
838.9829702286615
 20
971.6628082625691
 10
838.9890659648662
 20
971.6748833432315
 10
838.9943456674435
 20
971.6873539966995
 10
838.9987737613388
 20
971.7001352719028
 10
839.0023146714968
 20
971.7131422177718
 10
839.003754221402
 20
971.7197424711777
  0
ARC
  5
FCB
330
1F
100
AcDbEntity
  8
SANINDUSA
100
AcDbCircle
 10
838.7826628275934
 20
971.5715185469926
 30
0.0
 40
0.0100000000000503
100
AcDbArc
 50
95.88449692007211
 51
178.0000000027562
  0
LINE
  5
FCC
330
1F
100
AcDbEntity
  8
SANINDUSA
100
AcDbLine
 10
838.7726689193231
 20
971.5718675419596
 30
0.0
 11
838.7725067890784
 21
971.567224739209
 31
0.0
  0
LINE
  5
FCD
330
1F
100
AcDbEntity
  8
SANINDUSA
100
AcDbLine
 10
838.7602174538963
 20
971.567224739209
 30
0.0
 11
838.7725067890784
 21
971.567224739209
 31
0.0
  0
ARC
  5
FCE
330
1F
100
AcDbEntity
  8
SANINDUSA
100
AcDbCircle
 10
838.7602174538963
 20
971.568224739209
 30
0.0
 40
0.0010000000000002
100
AcDbArc
 50
180.0
 51
270.0
  0
LINE
  5
FCF
330
1F
100
AcDbEntity
  8
SANINDUSA
100
AcDbLine
 10
838.7592174538964
 20
971.568224739209
 30
0.0
 11
838.7592174538964
 21
971.5762972915079
 31
0.0
  0
ARC
  5
FD0
330
1F
100
AcDbEntity
  8
SANINDUSA
100
AcDbCircle
 10
838.7642174538964
 20
971.5762972915079
 30
0.0
 40
0.005
100
AcDbArc
 50
129.9999999976222
 51
180.0
  0
ARC
  5
FD1
330
1F
100
AcDbEntity
  8
SANINDUSA
100
AcDbCircle
 10
838.7776848380436
 20
971.581070732132
 30
0.0
 40
0.01
100
AcDbArc
 50
95.53224721364035
 51
129.9999999976222
  0
LWPOLYLINE
  5
FD2
330
1F
100
AcDbEntity
  8
SANINDUSA
100
AcDbPolyline
 90
       16
 70
   128
 43
0.0
 10
838.7767207783815
 20
971.5910241531002
 10
838.7978863526553
 20
971.5934325242388
 10
838.818967483295
 20
971.5965495462963
 10
838.8399461841347
 20
971.6003737181274
 10
838.8607980738376
 20
971.6049166913146
 10
838.8733940671476
 20
971.6085965339066
 10
838.8855109242227
 20
971.6132663783126
 10
838.8971034531953
 20
971.6188786714324
 10
838.9081264621983
 20
971.6253858601662
 10
838.9185347593643
 20
971.6327403914139
 10
838.9282831528262
 20
971.6408947120754
 10
838.9373264507165
 20
971.6498012690507
 10
838.9448200963952
 20
971.6584146982221
 10
838.9516739997135
 20
971.6675635161294
 10
838.957855286114
 20
971.6772131305502
 10
838.9633310810387
 20
971.6873289492623
  0
LWPOLYLINE
  5
FD5
330
1F
100
AcDbEntity
  8
SANINDUSA
100
AcDbPolyline
 90
        9
 70
   128
 43
0.0
 10
838.7630155502215
 20
971.5909834829604
 10
838.7630155956536
 20
971.5909834831576
 10
838.766681832666
 20
971.5909973006271
 10
838.7698485318034
 20
971.591006598247
 10
838.7730910173166
 20
971.5910149949339
 10
838.7753418433092
 20
971.5910205724036
 10
838.776373086122
 20
971.5910232330545
 10
838.7767207783813
 20
971.5910241531002
 10
838.7767207783815
 20
971.5910241531002
  0
LINE
  5
FD8
330
1F
100
AcDbEntity
  8
SANINDUSA
100
AcDbLine
 10
838.6236054617198
 20
971.7292153242663
 30
0.0
 11
838.639915723094
 21
971.7292153242663
 31
0.0
  0
LINE
  5
FDB
330
1F
100
AcDbEntity
  8
SANINDUSA
100
AcDbLine
 10
838.7602174538963
 20
971.5447153242664
 30
0.0
 11
838.7132174538963
 21
971.5447153242664
 31
0.0
  0
ARC
  5
FE5
330
1F
100
AcDbEntity
  8
SANINDUSA
100
AcDbCircle
 10
838.7409422003106
 20
971.2006996580409
 30
0.0
 40
0.3897899713694625
100
AcDbArc
 50
94.12833191812808
 51
96.10516796858579
  0
ARC
  5
FEE
330
1F
100
AcDbEntity
  8
SANINDUSA
100
AcDbCircle
 10
838.7557184274843
 20
970.9977778773415
 30
0.0
 40
0.5932471248438693
100
AcDbArc
 50
89.29916126132832
 51
94.13864041500163
  0
LINE
  5
FF2
330
1F
100
AcDbEntity
  8
SANINDUSA
100
AcDbLine
 10
838.9770907430939
 20
971.7292153242663
 30
0.0
 11
838.8120907430939
 21
971.7292153242663
 31
0.0
  0
LINE
  5
FF3
330
1F
100
AcDbEntity
  8
SANINDUSA
100
AcDbLine
 10
838.9844407430938
 20
971.7292153242663
 30
0.0
 11
838.9987144540274
 21
971.7292153242663
 31
0.0
  0
LINE
  5
FF5
330
1F
100
AcDbEntity
  8
SANINDUSA
100
AcDbLine
 10
838.8120907430939
 20
971.7292153242663
 30
0.0
 11
838.7015595366268
 21
971.7292153242663
 31
0.0
  0
ENDSEC
  0
SECTION
  2
OBJECTS
  0
DICTIONARY
  5
C
330
0
100
AcDbDictionary
281
     1
  3
ACAD_COLOR
350
BA9
  3
ACAD_GROUP
350
D
  3
ACAD_LAYOUT
350
1A
  3
ACAD_MATERIAL
350
BA8
  3
ACAD_MLINESTYLE
350
17
  3
ACAD_PLOTSETTINGS
350
19
  3
ACAD_PLOTSTYLENAME
350
E
  3
ACAD_TABLESTYLE
350
BAA
  3
ACDBHEADERROUNDTRIPXREC
350
115A
  3
AcDbVariableDictionary
350
3D
  3
ASE_INDEX_DICTIONARY
350
1147
  0
DICTIONARY
  5
BA9
102
{ACAD_REACTORS
330
C
102
}
330
C
100
AcDbDictionary
281
     1
  0
DICTIONARY
  5
D
102
{ACAD_REACTORS
330
C
102
}
330
C
100
AcDbDictionary
281
     1
  0
DICTIONARY
  5
1A
102
{ACAD_REACTORS
330
C
102
}
330
C
100
AcDbDictionary
281
     1
  3
Layout1
350
1E
  3
Layout2
350
26
  3
Model
350
22
  0
DICTIONARY
  5
BA8
102
{ACAD_REACTORS
330
C
102
}
330
C
100
AcDbDictionary
281
     1
  0
DICTIONARY
  5
17
102
{ACAD_REACTORS
330
C
102
}
330
C
100
AcDbDictionary
281
     1
  3
Standard
350
18
  0
DICTIONARY
  5
19
102
{ACAD_REACTORS
330
C
102
}
330
C
100
AcDbDictionary
281
     1
  0
ACDBDICTIONARYWDFLT
  5
E
102
{ACAD_REACTORS
330
C
102
}
330
C
100
AcDbDictionary
281
     1
  3
Normal
350
F
100
AcDbDictionaryWithDefault
340
F
  0
DICTIONARY
  5
BAA
102
{ACAD_REACTORS
330
C
102
}
330
C
100
AcDbDictionary
281
     1
  3
Standard
350
BAB
  0
DICTIONARY
  5
115A
102
{ACAD_REACTORS
330
C
102
}
330
C
100
AcDbDictionary
281
     1
  0
DICTIONARY
  5
3D
102
{ACAD_REACTORS
330
C
102
}
330
C
100
AcDbDictionary
281
     1
  3
CTABLESTYLE
350
114A
  3
DIMASSOC
350
3F
  3
HIDETEXT
350
3E
  3
PROJECTNAME
350
1153
  0
DICTIONARY
  5
1147
102
{ACAD_REACTORS
330
C
102
}
330
C
100
AcDbDictionary
281
     1
  3
ASEBlockHierarchyIndexRecord
350
1148
1001
DCO15
1040
1534510625.062
  0
LAYOUT
  5
1E
102
{ACAD_XDICTIONARY
360
115B
102
}
102
{ACAD_REACTORS
330
1A
102
}
330
1A
100
AcDbPlotSettings
  1

  2
Ploter HP500
  4

  6

 40
0.0
 41
0.0
 42
0.0
 43
0.0
 44
0.0
 45
0.0
 46
0.0
 47
0.0
 48
0.0
 49
0.0
140
0.0
141
0.0
142
1.0
143
1.0
 70
   688
 72
     0
 73
     0
 74
     5
  7
monochrome.ctb
 75
    16
147
1.0
148
0.0
149
0.0
100
AcDbLayout
  1
Layout1
 70
     1
 71
     1
 10
0.0
 20
0.0
 11
420.0
 21
297.0
 12
0.0
 22
0.0
 32
0.0
 14
1.000000000000000E+20
 24
1.000000000000000E+20
 34
1.000000000000000E+20
 15
-1.000000000000000E+20
 25
-1.000000000000000E+20
 35
-1.000000000000000E+20
146
0.0
 13
0.0
 23
0.0
 33
0.0
 16
1.0
 26
0.0
 36
0.0
 17
0.0
 27
1.0
 37
0.0
 76
     0
330
1B
  0
LAYOUT
  5
26
102
{ACAD_XDICTIONARY
360
115F
102
}
102
{ACAD_REACTORS
330
1A
102
}
330
1A
100
AcDbPlotSettings
  1

  2
Ploter HP500
  4

  6

 40
0.0
 41
0.0
 42
0.0
 43
0.0
 44
0.0
 45
0.0
 46
0.0
 47
0.0
 48
0.0
 49
0.0
140
0.0
141
0.0
142
1.0
143
1.0
 70
   688
 72
     0
 73
     0
 74
     5
  7
monochrome.ctb
 75
    16
147
1.0
148
0.0
149
0.0
100
AcDbLayout
  1
Layout2
 70
     1
 71
     2
 10
0.0
 20
0.0
 11
12.0
 21
9.0
 12
0.0
 22
0.0
 32
0.0
 14
0.0
 24
0.0
 34
0.0
 15
0.0
 25
0.0
 35
0.0
146
0.0
 13
0.0
 23
0.0
 33
0.0
 16
1.0
 26
0.0
 36
0.0
 17
0.0
 27
1.0
 37
0.0
 76
     0
330
23
  0
LAYOUT
  5
22
102
{ACAD_XDICTIONARY
360
115D
102
}
102
{ACAD_REACTORS
330
1A
102
}
330
1A
100
AcDbPlotSettings
  1

  2
Ploter HP500
  4
User268
  6

 40
4.995333194732666
 41
16.97565841674804
 42
4.995330810546875
 43
16.97567749023437
 44
209.9733276367187
 45
296.9259948730469
 46
0.0
 47
0.0
 48
0.0
 49
0.0
140
0.0
141
0.0
142
1.0
143
1.0
 70
 11952
 72
     1
 73
     1
 74
     0
  7

 75
     0
147
1.0
148
-427.5957866592534
149
7.362384574453926
100
AcDbLayout
  1
Model
 70
     1
 71
     0
 10
0.0
 20
0.0
 11
12.0
 21
9.0
 12
0.0
 22
0.0
 32
0.0
 14
0.0
 24
0.0
 34
0.0
 15
0.0
 25
0.0
 35
0.0
146
0.0
 13
0.0
 23
0.0
 33
0.0
 16
1.0
 26
0.0
 36
0.0
 17
0.0
 27
1.0
 37
0.0
 76
     0
330
1F
  0
MLINESTYLE
  5
18
102
{ACAD_REACTORS
330
17
102
}
330
17
100
AcDbMlineStyle
  2
STANDARD
 70
     0
  3

 62
   256
 51
90.0
 52
90.0
 71
     2
 49
0.5
 62
   256
  6
BYLAYER
 49
-0.5
 62
   256
  6
BYLAYER
  0
ACDBPLACEHOLDER
  5
F
102
{ACAD_REACTORS
330
E
102
}
330
E
  0
TABLESTYLE
  5
BAB
102
{ACAD_REACTORS
330
BAA
102
}
330
BAA
100
AcDbTableStyle
  3
Standard
 70
     0
 71
     0
 40
1.5
 41
1.5
280
     0
281
     0
  7
Standard
140
4.5
170
     2
 62
     0
 63
     7
283
     0
274
    -2
284
     1
 64
     0
275
    -2
285
     1
 65
     0
276
    -2
286
     1
 66
     0
277
    -2
287
     1
 67
     0
278
    -2
288
     1
 68
     0
279
    -2
289
     1
 69
     0
  7
Standard
140
6.0
170
     5
 62
     0
 63
     7
283
     0
274
    -2
284
     1
 64
     0
275
    -2
285
     1
 65
     0
276
    -2
286
     1
 66
     0
277
    -2
287
     1
 67
     0
278
    -2
288
     1
 68
     0
279
    -2
289
     1
 69
     0
  7
Standard
140
4.5
170
     5
 62
     0
 63
     7
283
     0
274
    -2
284
     1
 64
     0
275
    -2
285
     1
 65
     0
276
    -2
286
     1
 66
     0
277
    -2
287
     1
 67
     0
278
    -2
288
     1
 68
     0
279
    -2
289
     1
 69
     0
  0
DICTIONARYVAR
  5
114A
102
{ACAD_REACTORS
330
3D
102
}
330
3D
100
DictionaryVariables
280
     0
  1
STANDARD
  0
DICTIONARYVAR
  5
3F
102
{ACAD_REACTORS
330
3D
102
}
330
3D
100
DictionaryVariables
280
     0
  1
2
  0
DICTIONARYVAR
  5
3E
102
{ACAD_REACTORS
330
3D
102
}
330
3D
100
DictionaryVariables
280
     0
  1
1
  0
DICTIONARYVAR
  5
1153
102
{ACAD_REACTORS
330
3D
102
}
330
3D
100
DictionaryVariables
280
     0
  1

  0
XRECORD
  5
1148
102
{ACAD_REACTORS
330
1147
102
}
330
1147
100
AcDbXrecord
280
     1
  0
DICTIONARY
  5
115B
330
1E
100
AcDbDictionary
280
     1
281
     1
  3
ACAD_XREC_ROUNDTRIP
360
115C
  0
DICTIONARY
  5
115F
330
26
100
AcDbDictionary
280
     1
281
     1
  3
ACAD_XREC_ROUNDTRIP
360
1160
  0
DICTIONARY
  5
115D
330
22
100
AcDbDictionary
280
     1
281
     1
  3
ACAD_XREC_ROUNDTRIP
360
115E
  0
XRECORD
  5
115C
102
{ACAD_REACTORS
330
115B
102
}
330
115B
100
AcDbXrecord
280
     1
102
SHADEPLOT
 70
     0
102
SHADEPLOTRESLEVEL
 70
     2
102
SHADEPLOTCUSTOMDPI
 70
   300
  0
XRECORD
  5
1160
102
{ACAD_REACTORS
330
115F
102
}
330
115F
100
AcDbXrecord
280
     1
102
SHADEPLOT
 70
     0
102
SHADEPLOTRESLEVEL
 70
     2
102
SHADEPLOTCUSTOMDPI
 70
   300
  0
XRECORD
  5
115E
102
{ACAD_REACTORS
330
115D
102
}
330
115D
100
AcDbXrecord
280
     1
102
SHADEPLOT
 70
     0
102
SHADEPLOTRESLEVEL
 70
     2
102
SHADEPLOTCUSTOMDPI
 70
   300
  0
ENDSEC
  0
EOF
